  0
SECTION
  2
HEADER
  9
$ACADVER
  1
AC1015
  9
$ACADMAINTVER
 70
     6
  9
$DWGCODEPAGE
  3
ANSI_1254
  9
$INSBASE
 10
0.0
 20
0.0
 30
0.0
  9
$EXTMIN
 10
0.0
 20
0.0
 30
0.0
  9
$EXTMAX
 10
279.4
 20
215.9
 30
0.0
  9
$LIMMIN
 10
0.0
 20
0.0
  9
$LIMMAX
 10
279.4
 20
215.9
  9
$ORTHOMODE
 70
     0
  9
$REGENMODE
 70
     1
  9
$FILLMODE
 70
     1
  9
$QTEXTMODE
 70
     0
  9
$MIRRTEXT
 70
     1
  9
$LTSCALE
 40
1.0
  9
$ATTMODE
 70
     1
  9
$TEXTSIZE
 40
3.5
  9
$TRACEWID
 40
1.0
  9
$TEXTSTYLE
  7
Standard
  9
$CLAYER
  8
0
  9
$CELTYPE
  6
ByLayer
  9
$CECOLOR
 62
   256
  9
$CELTSCALE
 40
1.0
  9
$DISPSILH
 70
     0
  9
$DIMSCALE
 40
1.0
  9
$DIMASZ
 40
3.5
  9
$DIMEXO
 40
1.0
  9
$DIMDLI
 40
3.75
  9
$DIMRND
 40
0.0
  9
$DIMDLE
 40
0.0
  9
$DIMEXE
 40
1.0
  9
$DIMTP
 40
0.0
  9
$DIMTM
 40
0.0
  9
$DIMTXT
 40
3.5
  9
$DIMCEN
 40
2.5
  9
$DIMTSZ
 40
0.0
  9
$DIMTOL
 70
     0
  9
$DIMLIM
 70
     0
  9
$DIMTIH
 70
     1
  9
$DIMTOH
 70
     1
  9
$DIMSE1
 70
     0
  9
$DIMSE2
 70
     0
  9
$DIMTAD
 70
     1
  9
$DIMZIN
 70
     0
  9
$DIMBLK
  1

  9
$DIMASO
 70
     1
  9
$DIMSHO
 70
     1
  9
$DIMPOST
  1

  9
$DIMAPOST
  1

  9
$DIMALT
 70
     0
  9
$DIMALTD
 70
     3
  9
$DIMALTF
 40
0.0393700787
  9
$DIMLFAC
 40
1.0
  9
$DIMTOFL
 70
     1
  9
$DIMTVP
 40
0.0
  9
$DIMTIX
 70
     0
  9
$DIMSOXD
 70
     0
  9
$DIMSAH
 70
     0
  9
$DIMBLK1
  1

  9
$DIMBLK2
  1

  9
$DIMSTYLE
  2
ISO-25
  9
$DIMCLRD
 70
     0
  9
$DIMCLRE
 70
     0
  9
$DIMCLRT
 70
     0
  9
$DIMTFAC
 40
1.0
  9
$DIMGAP
 40
1.524
  9
$DIMJUST
 70
     0
  9
$DIMSD1
 70
     0
  9
$DIMSD2
 70
     0
  9
$DIMTOLJ
 70
     0
  9
$DIMTZIN
 70
     0
  9
$DIMALTZ
 70
     0
  9
$DIMALTTZ
 70
     0
  9
$DIMUPT
 70
     0
  9
$DIMDEC
 70
     2
  9
$DIMTDEC
 70
     2
  9
$DIMALTU
 70
     2
  9
$DIMALTTD
 70
     3
  9
$DIMTXSTY
  7
Standard
  9
$DIMAUNIT
 70
     0
  9
$DIMADEC
 70
     2
  9
$DIMALTRND
 40
0.0
  9
$DIMAZIN
 70
     0
  9
$DIMDSEP
 70
    44
  9
$DIMATFIT
 70
     3
  9
$DIMFRAC
 70
     0
  9
$DIMLDRBLK
  1

  9
$DIMLUNIT
 70
     2
  9
$DIMLWD
 70
    -2
  9
$DIMLWE
 70
    -2
  9
$DIMTMOVE
 70
     0
  9
$LUNITS
 70
     2
  9
$LUPREC
 70
     2
  9
$SKETCHINC
 40
1.0
  9
$FILLETRAD
 40
10.0
  9
$AUNITS
 70
     0
  9
$AUPREC
 70
     2
  9
$MENU
  1
.
  9
$ELEVATION
 40
0.0
  9
$PELEVATION
 40
0.0
  9
$THICKNESS
 40
0.0
  9
$LIMCHECK
 70
     0
  9
$CHAMFERA
 40
0.0
  9
$CHAMFERB
 40
0.0
  9
$CHAMFERC
 40
0.0
  9
$CHAMFERD
 40
0.0
  9
$SKPOLY
 70
     0
  9
$TDCREATE
 40
2460346.670740185
  9
$TDUCREATE
 40
2460346.545740185
  9
$TDUPDATE
 40
2460346.670740521
  9
$TDUUPDATE
 40
2460346.545740521
  9
$TDINDWG
 40
0.0000000116
  9
$TDUSRTIMER
 40
0.0000000116
  9
$USRTIMER
 70
     1
  9
$ANGBASE
 50
0.0
  9
$ANGDIR
 70
     0
  9
$PDMODE
 70
     0
  9
$PDSIZE
 40
-1.0
  9
$PLINEWID
 40
0.0
  9
$SPLFRAME
 70
     0
  9
$SPLINETYPE
 70
     6
  9
$SPLINESEGS
 70
     8
  9
$HANDSEED
  5
12E
  9
$SURFTAB1
 70
     6
  9
$SURFTAB2
 70
     6
  9
$SURFTYPE
 70
     6
  9
$SURFU
 70
     6
  9
$SURFV
 70
     6
  9
$UCSBASE
  2

  9
$UCSNAME
  2

  9
$UCSORG
 10
0.0
 20
0.0
 30
0.0
  9
$UCSXDIR
 10
1.0
 20
0.0
 30
0.0
  9
$UCSYDIR
 10
0.0
 20
1.0
 30
0.0
  9
$UCSORTHOREF
  2

  9
$UCSORTHOVIEW
 70
     0
  9
$UCSORGTOP
 10
0.0
 20
0.0
 30
0.0
  9
$UCSORGBOTTOM
 10
0.0
 20
0.0
 30
0.0
  9
$UCSORGLEFT
 10
0.0
 20
0.0
 30
0.0
  9
$UCSORGRIGHT
 10
0.0
 20
0.0
 30
0.0
  9
$UCSORGFRONT
 10
0.0
 20
0.0
 30
0.0
  9
$UCSORGBACK
 10
0.0
 20
0.0
 30
0.0
  9
$PUCSBASE
  2

  9
$PUCSNAME
  2

  9
$PUCSORG
 10
0.0
 20
0.0
 30
0.0
  9
$PUCSXDIR
 10
1.0
 20
0.0
 30
0.0
  9
$PUCSYDIR
 10
0.0
 20
1.0
 30
0.0
  9
$PUCSORTHOREF
  2

  9
$PUCSORTHOVIEW
 70
     0
  9
$PUCSORGTOP
 10
0.0
 20
0.0
 30
0.0
  9
$PUCSORGBOTTOM
 10
0.0
 20
0.0
 30
0.0
  9
$PUCSORGLEFT
 10
0.0
 20
0.0
 30
0.0
  9
$PUCSORGRIGHT
 10
0.0
 20
0.0
 30
0.0
  9
$PUCSORGFRONT
 10
0.0
 20
0.0
 30
0.0
  9
$PUCSORGBACK
 10
0.0
 20
0.0
 30
0.0
  9
$USERI1
 70
     0
  9
$USERI2
 70
     0
  9
$USERI3
 70
     0
  9
$USERI4
 70
     0
  9
$USERI5
 70
     0
  9
$USERR1
 40
0.0
  9
$USERR2
 40
0.0
  9
$USERR3
 40
0.0
  9
$USERR4
 40
0.0
  9
$USERR5
 40
0.0
  9
$WORLDVIEW
 70
     1
  9
$SHADEDGE
 70
     3
  9
$SHADEDIF
 70
    70
  9
$TILEMODE
 70
     1
  9
$MAXACTVP
 70
    64
  9
$PINSBASE
 10
0.0
 20
0.0
 30
0.0
  9
$PLIMCHECK
 70
     0
  9
$PEXTMIN
 10
1.0000000000E+20
 20
1.0000000000E+20
 30
1.0000000000E+20
  9
$PEXTMAX
 10
-1.0000000000E+20
 20
-1.0000000000E+20
 30
-1.0000000000E+20
  9
$PLIMMIN
 10
0.0
 20
0.0
  9
$PLIMMAX
 10
420.0
 20
297.0
  9
$UNITMODE
 70
     0
  9
$VISRETAIN
 70
     1
  9
$PLINEGEN
 70
     0
  9
$PSLTSCALE
 70
     1
  9
$TREEDEPTH
 70
  3020
  9
$CMLSTYLE
  2
Standard
  9
$CMLJUST
 70
     0
  9
$CMLSCALE
 40
20.0
  9
$PROXYGRAPHICS
 70
     1
  9
$MEASUREMENT
 70
     1
  9
$CELWEIGHT
370
    -1
  9
$ENDCAPS
280
     0
  9
$JOINSTYLE
280
     0
  9
$LWDISPLAY
290
     1
  9
$INSUNITS
 70
     4
  9
$HYPERLINKBASE
  1

  9
$STYLESHEET
  1

  9
$XEDIT
290
     1
  9
$CEPSNTYPE
380
     0
  9
$PSTYLEMODE
290
     1
  9
$FINGERPRINTGUID
  2
{4b3a5d92-12aa-4e74-a8e5-049b326b738f}
  9
$VERSIONGUID
  2
{FAEB1C32-E019-11D5-929B-00C0DF256EC4}
  9
$EXTNAMES
290
     1
  9
$PSVPSCALE
 40
0.0
  9
$OLESTARTUP
290
     0
  0
ENDSEC
  0
SECTION
  2
CLASSES
  0
CLASS
  1
ACDBDICTIONARYWDFLT
  2
AcDbDictionaryWithDefault
  3
ObjectDBX Classes
 90
        0
280
     0
281
     0
  0
CLASS
  1
VISUALSTYLE
  2
AcDbVisualStyle
  3
ObjectDBX Classes
 90
     4095
280
     0
281
     0
  0
CLASS
  1
MATERIAL
  2
AcDbMaterial
  3
ObjectDBX Classes
 90
     1153
280
     0
281
     0
  0
CLASS
  1
SCALE
  2
AcDbScale
  3
ObjectDBX Classes
 90
     1153
280
     0
281
     0
  0
CLASS
  1
TABLESTYLE
  2
AcDbTableStyle
  3
ObjectDBX Classes
 90
     4095
280
     0
281
     0
  0
CLASS
  1
MLEADERSTYLE
  2
AcDbMLeaderStyle
  3
ACDB_MLEADERSTYLE_CLASS
 90
     4095
280
     0
281
     0
  0
CLASS
  1
SUN
  2
AcDbSun
  3
SCENEOE
 90
     1153
280
     0
281
     0
  0
CLASS
  1
ACDBPLACEHOLDER
  2
AcDbPlaceHolder
  3
ObjectDBX Classes
 90
        0
280
     0
281
     0
  0
CLASS
  1
LAYOUT
  2
AcDbLayout
  3
ObjectDBX Classes
 90
        0
280
     0
281
     0
  0
ENDSEC
  0
SECTION
  2
TABLES
  0
TABLE
  2
VPORT
  5
8
330
0
100
AcDbSymbolTable
 70
     1
  0
VPORT
  5
29
330
8
100
AcDbSymbolTableRecord
100
AcDbViewportTableRecord
  2
*Active
 70
     0
 10
0.0
 20
0.0
 11
1.0
 21
1.0
 12
139.7
 22
107.95
 13
0.0
 23
0.0
 14
10.0
 24
10.0
 15
10.0
 25
10.0
 16
0.0
 26
0.0
 36
1.0
 17
0.0
 27
0.0
 37
0.0
 40
215.9
 41
1.2941176471
 42
50.0
 43
0.0
 44
0.0
 50
0.0
 51
0.0
 71
     0
 72
  2000
 73
     1
 74
     3
 75
     0
 76
     0
 77
     0
 78
     0
281
     0
 65
     1
110
0.0
120
0.0
130
0.0
111
1.0
121
0.0
131
0.0
112
0.0
122
1.0
132
0.0
 79
     0
146
0.0
  0
ENDTAB
  0
TABLE
  2
LTYPE
  5
5
330
0
100
AcDbSymbolTable
 70
     6
  0
LTYPE
  5
14
330
5
100
AcDbSymbolTableRecord
100
AcDbLinetypeTableRecord
  2
ByBlock
 70
     0
  3

 72
    65
 73
     0
 40
0.0
  0
LTYPE
  5
15
330
5
100
AcDbSymbolTableRecord
100
AcDbLinetypeTableRecord
  2
ByLayer
 70
     0
  3

 72
    65
 73
     0
 40
0.0
  0
LTYPE
  5
16
330
5
100
AcDbSymbolTableRecord
100
AcDbLinetypeTableRecord
  2
Continuous
 70
     0
  3
Solid line
 72
    65
 73
     0
 40
0.0
  0
LTYPE
  5
6E
330
5
100
AcDbSymbolTableRecord
100
AcDbLinetypeTableRecord
  2
HIDDEN
 70
     0
  3
Hidden __ __ __ __ __ __ __ __ __ __ __ __ __ __
 72
    65
 73
     2
 40
1.905
 49
1.27
 74
     0
 49
-0.635
 74
     0
  0
LTYPE
  5
6F
330
5
100
AcDbSymbolTableRecord
100
AcDbLinetypeTableRecord
  2
PHANTOM
 70
     0
  3
Phantom ______  __  __  ______  __  __  ______
 72
    65
 73
     6
 40
12.7
 49
6.35
 74
     0
 49
-1.27
 74
     0
 49
1.27
 74
     0
 49
-1.27
 74
     0
 49
1.27
 74
     0
 49
-1.27
 74
     0
  0
LTYPE
  5
70
330
5
100
AcDbSymbolTableRecord
100
AcDbLinetypeTableRecord
  2
CENTER
 70
     0
  3
Center ____ _ ____ _ ____ _ ____ _ ____ _ ____
 72
    65
 73
     4
 40
10.16
 49
6.35
 74
     0
 49
-1.27
 74
     0
 49
1.27
 74
     0
 49
-1.27
 74
     0
  0
LTYPE
  5
71
330
5
100
AcDbSymbolTableRecord
100
AcDbLinetypeTableRecord
  2
CENTERX2
 70
     0
  3
Center (2x) ________  __  ________  __  _____
 72
    65
 73
     4
 40
20.32
 49
12.7
 74
     0
 49
-2.54
 74
     0
 49
2.54
 74
     0
 49
-2.54
 74
     0
  0
LTYPE
  5
72
330
5
100
AcDbSymbolTableRecord
100
AcDbLinetypeTableRecord
  2
DOT2
 70
     0
  3
Dot (.5x) ........................................
 72
    65
 73
     2
 40
0.635
 49
0.0
 74
     0
 49
-0.635
 74
     0
  0
ENDTAB
  0
TABLE
  2
LAYER
  5
2
330
0
100
AcDbSymbolTable
 70
    17
  0
LAYER
  5
10
330
2
100
AcDbSymbolTableRecord
100
AcDbLayerTableRecord
  2
0
 70
     0
 62
     7
  6
Continuous
370
    -3
390
F
  0
LAYER
  5
73
330
2
100
AcDbSymbolTableRecord
100
AcDbLayerTableRecord
  2
FORMAT
 70
     0
 62
     7
  6
Continuous
370
    -3
390
F
  0
LAYER
  5
74
330
2
100
AcDbSymbolTableRecord
100
AcDbLayerTableRecord
  2
YARDIMCI_GEOMETRI
 70
     0
 62
    -6
  6
Continuous
290
     0
370
    -3
390
F
  0
LAYER
  5
75
330
2
100
AcDbSymbolTableRecord
100
AcDbLayerTableRecord
  2
SAYFA_CERCEVESI
 70
     0
 62
     7
  6
Continuous
370
    25
390
F
  0
LAYER
  5
76
330
2
100
AcDbSymbolTableRecord
100
AcDbLayerTableRecord
  2
ANTET
 70
     0
 62
     7
  6
Continuous
370
    -3
390
F
  0
LAYER
  5
77
330
2
100
AcDbSymbolTableRecord
100
AcDbLayerTableRecord
  2
OLCU
 70
     0
 62
   150
  6
Continuous
370
    -3
390
F
  0
LAYER
  5
78
330
2
100
AcDbSymbolTableRecord
100
AcDbLayerTableRecord
  2
METIN
 70
     0
 62
    96
  6
Continuous
370
    -3
390
F
  0
LAYER
  5
79
330
2
100
AcDbSymbolTableRecord
100
AcDbLayerTableRecord
  2
BALON
 70
     0
 62
     5
  6
Continuous
370
    -3
390
F
  0
LAYER
  5
7A
330
2
100
AcDbSymbolTableRecord
100
AcDbLayerTableRecord
  2
VURGU
 70
     0
 62
     7
  6
Continuous
370
    -3
390
F
  0
LAYER
  5
7B
330
2
100
AcDbSymbolTableRecord
100
AcDbLayerTableRecord
  2
SILIK
 70
     0
 62
     7
  6
Continuous
370
    -3
390
F
  0
LAYER
  5
7C
330
2
100
AcDbSymbolTableRecord
100
AcDbLayerTableRecord
  2
MODEL
 70
     0
 62
     7
  6
Continuous
370
    -3
390
F
  0
LAYER
  5
7D
330
2
100
AcDbSymbolTableRecord
100
AcDbLayerTableRecord
  2
DETAYLANDıRMA
 70
     0
 62
   190
  6
Continuous
370
    -3
390
F
  0
LAYER
  5
7E
330
2
100
AcDbSymbolTableRecord
100
AcDbLayerTableRecord
  2
TOLERANS
 70
     0
 62
   230
  6
Continuous
370
    -3
390
F
  0
LAYER
  5
7F
330
2
100
AcDbSymbolTableRecord
100
AcDbLayerTableRecord
  2
MERKEZ_CIZGILERI
 70
     0
 62
    30
  6
Continuous
370
    -3
390
F
  0
LAYER
  5
80
330
2
100
AcDbSymbolTableRecord
100
AcDbLayerTableRecord
  2
KESIT-DETAY_CIZGILERI
 70
     0
 62
     7
  6
Continuous
370
    -3
390
F
  0
LAYER
  5
81
330
2
100
AcDbSymbolTableRecord
100
AcDbLayerTableRecord
  2
\U+041E\U+0421\U+0415\U+0412\U+042B\U+0415
 70
     0
 62
     7
  6
Continuous
370
    -3
390
F
  0
LAYER
  5
82
330
2
100
AcDbSymbolTableRecord
100
AcDbLayerTableRecord
  2
\U+0412\U+041E\U+0414\U+042F\U+041D\U+042B\U+0415_\U+0417\U+041D\U+0410\U+041A\U+0418
 70
     0
 62
    11
  6
Continuous
370
    -3
390
F
  0
ENDTAB
  0
TABLE
  2
STYLE
  5
3
330
0
100
AcDbSymbolTable
 70
     1
  0
STYLE
  5
11
330
3
100
AcDbSymbolTableRecord
100
AcDbTextStyleTableRecord
  2
Standard
 70
     0
 40
0.0
 41
1.0
 50
0.0
 71
     0
 42
3.5
  3
txt
  4

  0
ENDTAB
  0
TABLE
  2
VIEW
  5
6
330
0
100
AcDbSymbolTable
 70
     0
  0
ENDTAB
  0
TABLE
  2
UCS
  5
7
330
0
100
AcDbSymbolTable
 70
     0
  0
ENDTAB
  0
TABLE
  2
APPID
  5
9
330
0
100
AcDbSymbolTable
 70
     1
  0
APPID
  5
12
330
9
100
AcDbSymbolTableRecord
100
AcDbRegAppTableRecord
  2
ACAD
 70
     0
  0
ENDTAB
  0
TABLE
  2
DIMSTYLE
  5
A
330
0
100
AcDbSymbolTable
 70
     1
100
AcDbDimStyleTable
  0
DIMSTYLE
105
27
330
A
100
AcDbSymbolTableRecord
100
AcDbDimStyleTableRecord
  2
ISO-25
 70
     0
 41
2.5
 42
0.625
 43
3.75
 44
1.25
 73
     0
 74
     0
 77
     1
 78
     8
140
2.5
141
2.5
143
0.0393700787
147
0.625
171
     3
172
     1
178
     0
271
     2
272
     2
274
     3
278
    44
283
     0
284
     8
340
11
  0
ENDTAB
  0
TABLE
  2
BLOCK_RECORD
  5
1
330
0
100
AcDbSymbolTable
 70
     4
  0
BLOCK_RECORD
  5
1F
330
1
100
AcDbSymbolTableRecord
100
AcDbBlockTableRecord
  2
*Model_Space
340
22
  0
BLOCK_RECORD
  5
1B
330
1
100
AcDbSymbolTableRecord
100
AcDbBlockTableRecord
  2
*Paper_Space
340
1E
  0
BLOCK_RECORD
  5
23
330
1
100
AcDbSymbolTableRecord
100
AcDbBlockTableRecord
  2
*Paper_Space0
340
26
  0
BLOCK_RECORD
  5
8E
330
1
100
AcDbSymbolTableRecord
100
AcDbBlockTableRecord
  2
SW_CENTERMARKSYMBOL_0
340
0
102
{BLKREFS
331
99
102
}
  0
BLOCK_RECORD
  5
C8
330
1
100
AcDbSymbolTableRecord
100
AcDbBlockTableRecord
  2
SW_CENTERMARKSYMBOL_1
340
0
102
{BLKREFS
331
D3
102
}
  0
BLOCK_RECORD
  5
D4
330
1
100
AcDbSymbolTableRecord
100
AcDbBlockTableRecord
  2
SW_CENTERMARKSYMBOL_2
340
0
102
{BLKREFS
331
DF
102
}
  0
ENDTAB
  0
ENDSEC
  0
SECTION
  2
BLOCKS
  0
BLOCK
  5
20
330
1F
100
AcDbEntity
  8
0
100
AcDbBlockBegin
  2
*Model_Space
 70
     0
 10
0.0
 20
0.0
 30
0.0
  3
*Model_Space
  1

  0
ENDBLK
  5
21
330
1F
100
AcDbEntity
  8
0
100
AcDbBlockEnd
  0
BLOCK
  5
1C
330
1B
100
AcDbEntity
 67
     1
  8
0
100
AcDbBlockBegin
  2
*Paper_Space
 70
     0
 10
0.0
 20
0.0
 30
0.0
  3
*Paper_Space
  1

  0
ENDBLK
  5
1D
330
1B
100
AcDbEntity
 67
     1
  8
0
100
AcDbBlockEnd
  0
BLOCK
  5
24
330
23
100
AcDbEntity
  8
0
100
AcDbBlockBegin
  2
*Paper_Space0
 70
     0
 10
0.0
 20
0.0
 30
0.0
  3
*Paper_Space0
  1

  0
ENDBLK
  5
25
330
23
100
AcDbEntity
  8
0
100
AcDbBlockEnd
  0
BLOCK
  5
8F
330
8E
100
AcDbEntity
  8
0
100
AcDbBlockBegin
  2
SW_CENTERMARKSYMBOL_0
 70
     0
 10
0.0
 20
0.0
 30
0.0
  3
SW_CENTERMARKSYMBOL_0
  1

  0
LINE
  5
91
330
8E
100
AcDbEntity
  8
FORMAT
 62
     0
100
AcDbLine
 10
0.0
 20
0.0
 30
0.0
 11
0.0
 21
2.5
 31
0.0
  0
LINE
  5
92
330
8E
100
AcDbEntity
  8
FORMAT
 62
     0
100
AcDbLine
 10
0.0
 20
0.0
 30
0.0
 11
-2.5
 21
0.0
 31
0.0
  0
LINE
  5
93
330
8E
100
AcDbEntity
  8
FORMAT
 62
     0
100
AcDbLine
 10
0.0
 20
0.0
 30
0.0
 11
0.0
 21
-2.5
 31
0.0
  0
LINE
  5
94
330
8E
100
AcDbEntity
  8
FORMAT
 62
     0
100
AcDbLine
 10
0.0
 20
0.0
 30
0.0
 11
2.5
 21
0.0
 31
0.0
  0
LINE
  5
95
330
8E
100
AcDbEntity
  8
FORMAT
 62
     0
100
AcDbLine
 10
0.0
 20
5.0
 30
0.0
 11
0.0
 21
41.5
 31
0.0
  0
LINE
  5
96
330
8E
100
AcDbEntity
  8
FORMAT
 62
     0
100
AcDbLine
 10
-5.0
 20
0.0
 30
0.0
 11
-41.5
 21
0.0
 31
0.0
  0
LINE
  5
97
330
8E
100
AcDbEntity
  8
FORMAT
 62
     0
100
AcDbLine
 10
0.0
 20
-5.0
 30
0.0
 11
0.0
 21
-41.5
 31
0.0
  0
LINE
  5
98
330
8E
100
AcDbEntity
  8
FORMAT
 62
     0
100
AcDbLine
 10
5.0
 20
0.0
 30
0.0
 11
41.5
 21
0.0
 31
0.0
  0
ENDBLK
  5
90
330
8E
100
AcDbEntity
  8
0
100
AcDbBlockEnd
  0
BLOCK
  5
C9
330
C8
100
AcDbEntity
  8
0
100
AcDbBlockBegin
  2
SW_CENTERMARKSYMBOL_1
 70
     0
 10
0.0
 20
0.0
 30
0.0
  3
SW_CENTERMARKSYMBOL_1
  1

  0
LINE
  5
CB
330
C8
100
AcDbEntity
  8
FORMAT
 62
     0
100
AcDbLine
 10
0.0
 20
0.0
 30
0.0
 11
0.0
 21
2.5
 31
0.0
  0
LINE
  5
CC
330
C8
100
AcDbEntity
  8
FORMAT
 62
     0
100
AcDbLine
 10
0.0
 20
0.0
 30
0.0
 11
-2.5
 21
0.0
 31
0.0
  0
LINE
  5
CD
330
C8
100
AcDbEntity
  8
FORMAT
 62
     0
100
AcDbLine
 10
0.0
 20
0.0
 30
0.0
 11
0.0
 21
-2.5
 31
0.0
  0
LINE
  5
CE
330
C8
100
AcDbEntity
  8
FORMAT
 62
     0
100
AcDbLine
 10
0.0
 20
0.0
 30
0.0
 11
2.5
 21
0.0
 31
0.0
  0
LINE
  5
CF
330
C8
100
AcDbEntity
  8
FORMAT
 62
     0
100
AcDbLine
 10
0.0
 20
5.0
 30
0.0
 11
0.0
 21
9.5
 31
0.0
  0
LINE
  5
D0
330
C8
100
AcDbEntity
  8
FORMAT
 62
     0
100
AcDbLine
 10
-5.0
 20
0.0
 30
0.0
 11
-9.5
 21
0.0
 31
0.0
  0
LINE
  5
D1
330
C8
100
AcDbEntity
  8
FORMAT
 62
     0
100
AcDbLine
 10
0.0
 20
-5.0
 30
0.0
 11
0.0
 21
-9.5
 31
0.0
  0
LINE
  5
D2
330
C8
100
AcDbEntity
  8
FORMAT
 62
     0
100
AcDbLine
 10
5.0
 20
0.0
 30
0.0
 11
9.5
 21
0.0
 31
0.0
  0
ENDBLK
  5
CA
330
C8
100
AcDbEntity
  8
0
100
AcDbBlockEnd
  0
BLOCK
  5
D5
330
D4
100
AcDbEntity
  8
0
100
AcDbBlockBegin
  2
SW_CENTERMARKSYMBOL_2
 70
     0
 10
0.0
 20
0.0
 30
0.0
  3
SW_CENTERMARKSYMBOL_2
  1

  0
LINE
  5
D7
330
D4
100
AcDbEntity
  8
FORMAT
 62
     0
100
AcDbLine
 10
0.0
 20
0.0
 30
0.0
 11
0.0
 21
2.5
 31
0.0
  0
LINE
  5
D8
330
D4
100
AcDbEntity
  8
FORMAT
 62
     0
100
AcDbLine
 10
0.0
 20
0.0
 30
0.0
 11
-2.5
 21
0.0
 31
0.0
  0
LINE
  5
D9
330
D4
100
AcDbEntity
  8
FORMAT
 62
     0
100
AcDbLine
 10
0.0
 20
0.0
 30
0.0
 11
0.0
 21
-2.5
 31
0.0
  0
LINE
  5
DA
330
D4
100
AcDbEntity
  8
FORMAT
 62
     0
100
AcDbLine
 10
0.0
 20
0.0
 30
0.0
 11
2.5
 21
0.0
 31
0.0
  0
LINE
  5
DB
330
D4
100
AcDbEntity
  8
FORMAT
 62
     0
100
AcDbLine
 10
0.0
 20
5.0
 30
0.0
 11
0.0
 21
9.5
 31
0.0
  0
LINE
  5
DC
330
D4
100
AcDbEntity
  8
FORMAT
 62
     0
100
AcDbLine
 10
-5.0
 20
0.0
 30
0.0
 11
-9.5
 21
0.0
 31
0.0
  0
LINE
  5
DD
330
D4
100
AcDbEntity
  8
FORMAT
 62
     0
100
AcDbLine
 10
0.0
 20
-5.0
 30
0.0
 11
0.0
 21
-9.5
 31
0.0
  0
LINE
  5
DE
330
D4
100
AcDbEntity
  8
FORMAT
 62
     0
100
AcDbLine
 10
5.0
 20
0.0
 30
0.0
 11
9.5
 21
0.0
 31
0.0
  0
ENDBLK
  5
D6
330
D4
100
AcDbEntity
  8
0
100
AcDbBlockEnd
  0
ENDSEC
  0
SECTION
  2
ENTITIES
  0
LINE
  5
83
330
1F
100
AcDbEntity
  8
0
  6
Continuous
 62
     7
370
    25
100
AcDbLine
 10
129.1701403815
 20
79.3044734
 30
0.0
 11
129.1701403815
 21
53.1754170122
 31
0.0
  0
LINE
  5
84
330
1F
100
AcDbEntity
  8
0
  6
Continuous
 62
     7
370
    25
100
AcDbLine
 10
143.1701403815
 20
53.1754170122
 30
0.0
 11
143.1701403815
 21
79.3073590253
 31
0.0
  0
LINE
  5
85
330
1F
100
AcDbEntity
  8
0
  6
Continuous
 62
     7
370
    25
100
AcDbLine
 10
129.1701403815
 20
79.3087648257
 30
0.0
 11
129.1701403815
 21
79.3044734
 31
0.0
  0
LINE
  5
86
330
1F
100
AcDbEntity
  8
0
  6
Continuous
 62
     7
370
    25
100
AcDbLine
 10
143.1701403815
 20
79.3073590253
 30
0.0
 11
143.1701403815
 21
79.3087648257
 31
0.0
  0
CIRCLE
  5
87
330
1F
100
AcDbEntity
  8
0
  6
Continuous
 62
     7
370
    25
100
AcDbCircle
 10
136.1701403815
 20
117.6754170122
 30
0.0
 40
39.0
  0
CIRCLE
  5
88
330
1F
100
AcDbEntity
  8
0
  6
Continuous
 62
     7
370
    25
100
AcDbCircle
 10
136.1701403815
 20
117.6754170122
 30
0.0
 40
31.5
  0
LINE
  5
89
330
1F
100
AcDbEntity
  8
0
  6
Continuous
 62
     7
370
    25
100
AcDbLine
 10
136.1701403815
 20
53.1754170122
 30
0.0
 11
143.1701403815
 21
53.1754170122
 31
0.0
  0
LINE
  5
8A
330
1F
100
AcDbEntity
  8
0
  6
Continuous
 62
     7
370
    25
100
AcDbLine
 10
129.1701403815
 20
53.1754170122
 30
0.0
 11
136.1701403815
 21
53.1754170122
 31
0.0
  0
CIRCLE
  5
8B
330
1F
100
AcDbEntity
  8
0
  6
Continuous
 62
     7
370
    25
100
AcDbCircle
 10
136.1701403815
 20
117.6754170122
 30
0.0
 40
30.7
  0
CIRCLE
  5
8C
330
1F
100
AcDbEntity
  8
0
  6
Continuous
 62
     7
370
    25
100
AcDbCircle
 10
136.1701403815
 20
117.6754170122
 30
0.0
 40
25.8
  0
CIRCLE
  5
8D
330
1F
100
AcDbEntity
  8
0
  6
Continuous
 62
     7
370
    25
100
AcDbCircle
 10
136.1701403815
 20
117.6754170122
 30
0.0
 40
25.00000000000001
  0
INSERT
  5
99
330
1F
100
AcDbEntity
  8
FORMAT
 62
     7
100
AcDbBlockReference
  2
SW_CENTERMARKSYMBOL_0
 10
136.1701403815
 20
117.6754170122
 30
0.0
  0
LINE
  5
9A
330
1F
100
AcDbEntity
  8
0
  6
Continuous
 62
     7
370
    25
100
AcDbLine
 10
-5.1350664135
 20
156.6754170122
 30
0.0
 11
-66.1350664135
 21
156.6754170122
 31
0.0
  0
LINE
  5
9B
330
1F
100
AcDbEntity
  8
0
  6
Continuous
 62
     7
370
    25
100
AcDbLine
 10
-51.153669357
 20
78.6754170122
 30
0.0
 11
-5.1350664135
 21
78.6754170122
 31
0.0
  0
LINE
  5
9C
330
1F
100
AcDbEntity
  8
0
  6
Continuous
 62
     7
370
    25
100
AcDbLine
 10
-66.1350664135
 20
78.6754170122
 30
0.0
 11
-65.1350664135
 21
78.6754170122
 31
0.0
  0
ARC
  5
9D
330
1F
100
AcDbEntity
  8
0
  6
Continuous
 62
     7
370
    25
100
AcDbCircle
 10
-5.1350664135
 20
154.6754170122
 30
0.0
 40
2.000000000000006
100
AcDbArc
 50
36.8698976458
 51
90.0
  0
ARC
  5
9E
330
1F
100
AcDbEntity
  8
0
  6
Continuous
 62
     7
370
    25
100
AcDbCircle
 10
-5.1350664135
 20
80.6754170122
 30
0.0
 40
2.0
100
AcDbArc
 50
270.0
 51
323.1301023542
  0
LINE
  5
9F
330
1F
100
AcDbEntity
  8
0
  6
Continuous
 62
     7
370
    25
100
AcDbLine
 10
-3.5350664135
 20
79.4754170122
 30
0.0
 11
1.2649335865
 21
85.8754170122
 31
0.0
  0
LINE
  5
A0
330
1F
100
AcDbEntity
  8
0
  6
Continuous
 62
     7
370
    25
100
AcDbLine
 10
1.2649335865
 20
149.4754170122
 30
0.0
 11
-3.5350664135
 21
155.8754170122
 31
0.0
  0
ARC
  5
A1
330
1F
100
AcDbEntity
  8
0
  6
Continuous
 62
     7
370
    25
100
AcDbCircle
 10
2.8649335865
 20
150.6754170122
 30
0.0
 40
1.999999999999989
100
AcDbArc
 50
216.8698976458
 51
270.0
  0
ARC
  5
A2
330
1F
100
AcDbEntity
  8
0
  6
Continuous
 62
     7
370
    25
100
AcDbCircle
 10
2.8649335865
 20
84.6754170122
 30
0.0
 40
2.0
100
AcDbArc
 50
90.0
 51
143.1301023542
  0
LINE
  5
A3
330
1F
100
AcDbEntity
  8
0
  6
Continuous
 62
     7
370
    25
100
AcDbLine
 10
50.8649335865
 20
148.6754170122
 30
0.0
 11
2.8649335865
 21
148.6754170122
 31
0.0
  0
LINE
  5
A4
330
1F
100
AcDbEntity
  8
0
  6
Continuous
 62
     7
370
    25
100
AcDbLine
 10
49.8493897738
 20
86.6754170122
 30
0.0
 11
50.8649335865
 21
86.6754170122
 31
0.0
  0
LINE
  5
A5
330
1F
100
AcDbEntity
  8
0
  6
Continuous
 62
     7
370
    25
100
AcDbLine
 10
2.8649335865
 20
86.6754170122
 30
0.0
 11
35.8649335865
 21
86.6754170122
 31
0.0
  0
LINE
  5
A6
330
1F
100
AcDbEntity
  8
0
  6
Continuous
 62
     7
370
    25
100
AcDbLine
 10
35.8649335865
 20
86.6754170122
 30
0.0
 11
35.8649335865
 21
67.6754170122
 31
0.0
  0
LINE
  5
A7
330
1F
100
AcDbEntity
  8
0
  6
Continuous
 62
     7
370
    25
100
AcDbLine
 10
49.8649335865
 20
67.6754170122
 30
0.0
 11
49.8649335865
 21
86.6789079194
 31
0.0
  0
LINE
  5
A8
330
1F
100
AcDbEntity
  8
0
  6
Continuous
 62
     7
370
    25
100
AcDbLine
 10
-65.1350664135
 20
78.6754170122
 30
0.0
 11
-65.1350664135
 21
53.1754170122
 31
0.0
  0
LINE
  5
A9
330
1F
100
AcDbEntity
  8
0
  6
Continuous
 62
     7
370
    25
100
AcDbLine
 10
-51.1350664135
 20
53.1754170122
 30
0.0
 11
-51.1350664135
 21
78.6787421527
 31
0.0
  0
LINE
  5
AA
330
1F
100
AcDbEntity
  8
0
  6
Continuous
 62
     7
370
    25
100
AcDbLine
 10
-66.1350664135
 20
156.6754170122
 30
0.0
 11
-66.1350664135
 21
78.6754170122
 31
0.0
  0
SPLINE
  5
AB
330
1F
100
AcDbEntity
  8
0
  6
Continuous
 62
     7
370
    25
100
AcDbSpline
210
0.0
220
0.0
230
1.0
 70
     8
 71
     3
 72
    26
 73
    22
 74
     0
 42
0.00000001
 43
0.00000001
 40
0.0
 40
0.0
 40
0.0
 40
0.0
 40
0.0139818228918571
 40
0.067913977131212
 40
0.1199579154425447
 40
0.1734827258595312
 40
0.226060290124154
 40
0.2801263470955609
 40
0.3333176227808411
 40
0.3880638744459786
 40
0.440989949741505
 40
0.4954955828711955
 40
0.5476689634060294
 40
0.6013616260181964
 40
0.6534773968008535
 40
0.7070649687794187
 40
0.7598966929519644
 40
0.8142361210904782
 40
0.8674520845202361
 40
0.9222408030247752
 40
1.0
 40
1.0
 40
1.0
 40
1.0
 10
-51.15366935700222
 20
78.67874692359577
 30
0.0
 10
-51.14816393428379
 20
78.67776158485098
 30
0.0
 10
-51.12142241742373
 20
78.67297549411752
 30
0.0
 10
-51.26882923154987
 20
78.6994601795904
 30
0.0
 10
-51.59904055025231
 20
78.75673385326895
 30
0.0
 10
-52.11985482739348
 20
78.84163026740005
 30
0.0
 10
-52.80968682345444
 20
78.94339257837026
 30
0.0
 10
-53.64745442330891
 20
79.05073175927981
 30
0.0
 10
-54.62390160158831
 20
79.1529844146941
 30
0.0
 10
-55.69512822849888
 20
79.23664452019852
 30
0.0
 10
-56.84606332077882
 20
79.29303555053735
 30
0.0
 10
-58.01687296654533
 20
79.3146433620958
 30
0.0
 10
-59.19594605521807
 20
79.29992407084825
 30
0.0
 10
-60.32782958016921
 20
79.25148067908559
 30
0.0
 10
-61.40699443060307
 20
79.17408883236284
 30
0.0
 10
-62.38966403828006
 20
79.07728391227755
 30
0.0
 10
-63.26590046804037
 20
78.96997687743199
 30
0.0
 10
-63.99776102062897
 20
78.86516795560752
 30
0.0
 10
-64.56700789424006
 20
78.77437001986335
 30
0.0
 10
-65.02745903240599
 20
78.69503307224194
 30
0.0
 10
-65.09527953492088
 20
78.6826698771359
 30
0.0
 10
-65.13506641346156
 20
78.67541701223782
 30
0.0
  0
LINE
  5
AC
330
1F
100
AcDbEntity
  8
0
  6
Continuous
 62
     7
370
    25
100
AcDbLine
 10
50.8649335865
 20
148.6754170122
 30
0.0
 11
50.8649335865
 21
86.6754170122
 31
0.0
  0
SPLINE
  5
AD
330
1F
100
AcDbEntity
  8
0
  6
Continuous
 62
     7
370
    25
100
AcDbSpline
210
0.0
220
0.0
230
1.0
 70
     8
 71
     3
 72
    27
 73
    23
 74
     0
 42
0.00000001
 43
0.00000001
 40
0.0
 40
0.0
 40
0.0
 40
0.0
 40
0.0108504886896606
 40
0.0645027765961394
 40
0.1160322403625599
 40
0.169014596690985
 40
0.2213335182312857
 40
0.275111773606339
 40
0.3284288242343585
 40
0.3833072694211028
 40
0.4362790705909658
 40
0.4908596116188459
 40
0.5426206249775126
 40
0.5958969070698406
 40
0.6474926849973048
 40
0.7005244671475304
 40
0.7532287198309685
 40
0.8074191567313889
 40
0.8608047514164529
 40
0.915781593872415
 40
0.9575031454595537
 40
1.0
 40
1.0
 40
1.0
 40
1.0
 10
49.84938977376714
 20
86.67891555025615
 30
0.0
 10
49.85420257809814
 20
86.67783243802502
 30
0.0
 10
49.88281320121775
 20
86.67139367307425
 30
0.0
 10
49.74537965058517
 20
86.70247566540057
 30
0.0
 10
49.4312956371278
 20
86.77126094587854
 30
0.0
 10
48.92776945774928
 20
86.87530164863502
 30
0.0
 10
48.25662140350656
 20
87.00146350886146
 30
0.0
 10
47.43452027069912
 20
87.13659167460351
 30
0.0
 10
46.46991186564045
 20
87.26731443658808
 30
0.0
 10
45.40483584066512
 20
87.37621721326197
 30
0.0
 10
44.25637368826604
 20
87.45153642281888
 30
0.0
 10
43.08802917569926
 20
87.48292519187895
 30
0.0
 10
41.91180705507461
 20
87.46837438895996
 30
0.0
 10
40.78429773505046
 20
87.41120319018398
 30
0.0
 10
39.70727541199876
 20
87.31722572033387
 30
0.0
 10
38.72110396559277
 20
87.19784122196539
 30
0.0
 10
37.83429778775643
 20
87.0635189828662
 30
0.0
 10
37.08578122360429
 20
86.93044283409357
 30
0.0
 10
36.4898796652743
 20
86.81182225589635
 30
0.0
 10
36.1115401398896
 20
86.73055117040195
 30
0.0
 10
35.90102697235933
 20
86.68360350003785
 30
0.0
 10
35.87703832719096
 20
86.67816253775227
 30
0.0
 10
35.86493358653846
 20
86.67541701223782
 30
0.0
  0
LINE
  5
AE
330
1F
100
AcDbEntity
  8
0
  6
Continuous
 62
     7
370
    25
100
AcDbLine
 10
35.8649335865
 20
67.6754170122
 30
0.0
 11
49.8649335865
 21
67.6754170122
 31
0.0
  0
LINE
  5
AF
330
1F
100
AcDbEntity
  8
0
  6
Continuous
 62
     7
370
    25
100
AcDbLine
 10
-65.1350664135
 20
53.1754170122
 30
0.0
 11
-51.1350664135
 21
53.1754170122
 31
0.0
  0
LINE
  5
B0
330
1F
100
AcDbEntity
  8
0
  6
Continuous
 62
     1
370
    25
100
AcDbLine
 10
-5.1350664135
 20
156.6754170122
 30
0.0
 11
-5.1350664135
 21
78.6754170122
 31
0.0
  0
LINE
  5
B1
330
1F
100
AcDbEntity
  8
0
  6
Continuous
 62
     1
370
    25
100
AcDbLine
 10
-3.5350664135
 20
155.8754170122
 30
0.0
 11
-3.5350664135
 21
79.4754170122
 31
0.0
  0
LINE
  5
B2
330
1F
100
AcDbEntity
  8
0
  6
Continuous
 62
     1
370
    25
100
AcDbLine
 10
1.2649335865
 20
149.4754170122
 30
0.0
 11
1.2649335865
 21
85.8754170122
 31
0.0
  0
LINE
  5
B3
330
1F
100
AcDbEntity
  8
0
  6
Continuous
 62
     1
370
    25
100
AcDbLine
 10
2.8649335865
 20
148.6754170122
 30
0.0
 11
2.8649335865
 21
86.6754170122
 31
0.0
  0
LINE
  5
B4
330
1F
100
AcDbEntity
  8
0
  6
Continuous
 62
     7
370
    25
100
AcDbLine
 10
175.1701403815
 20
238.1778396156
 30
0.0
 11
175.1701403815
 21
299.1778396156
 31
0.0
  0
LINE
  5
B5
330
1F
100
AcDbEntity
  8
0
  6
Continuous
 62
     7
370
    25
100
AcDbLine
 10
97.1701403815
 20
299.1778396156
 30
0.0
 11
97.1701403815
 21
238.1778396156
 31
0.0
  0
ARC
  5
B6
330
1F
100
AcDbEntity
  8
0
  6
Continuous
 62
     7
370
    25
100
AcDbCircle
 10
173.1701403815
 20
238.1778396156
 30
0.0
 40
2.0
100
AcDbArc
 50
306.8698976458
 51
0.0
  0
ARC
  5
B7
330
1F
100
AcDbEntity
  8
0
  6
Continuous
 62
     7
370
    25
100
AcDbCircle
 10
99.1701403815
 20
238.1778396156
 30
0.0
 40
2.0
100
AcDbArc
 50
180.0
 51
233.1301023542
  0
LINE
  5
B8
330
1F
100
AcDbEntity
  8
0
  6
Continuous
 62
     7
370
    25
100
AcDbLine
 10
97.9701403815
 20
236.5778396156
 30
0.0
 11
104.3701403815
 21
231.7778396156
 31
0.0
  0
LINE
  5
B9
330
1F
100
AcDbEntity
  8
0
  6
Continuous
 62
     7
370
    25
100
AcDbLine
 10
167.9701403815
 20
231.7778396156
 30
0.0
 11
174.3701403815
 21
236.5778396156
 31
0.0
  0
ARC
  5
BA
330
1F
100
AcDbEntity
  8
0
  6
Continuous
 62
     7
370
    25
100
AcDbCircle
 10
169.1701403815
 20
230.1778396156
 30
0.0
 40
2.000000000000006
100
AcDbArc
 50
126.8698976458
 51
180.0
  0
ARC
  5
BB
330
1F
100
AcDbEntity
  8
0
  6
Continuous
 62
     7
370
    25
100
AcDbCircle
 10
103.1701403815
 20
230.1778396156
 30
0.0
 40
2.0
100
AcDbArc
 50
0.0
 51
53.1301023542
  0
LINE
  5
BC
330
1F
100
AcDbEntity
  8
0
  6
Continuous
 62
     7
370
    25
100
AcDbLine
 10
167.1701403815
 20
182.1778396156
 30
0.0
 11
167.1701403815
 21
230.1778396156
 31
0.0
  0
LINE
  5
BD
330
1F
100
AcDbEntity
  8
0
  6
Continuous
 62
     7
370
    25
100
AcDbLine
 10
105.1701403815
 20
230.1778396156
 30
0.0
 11
105.1701403815
 21
182.1778396156
 31
0.0
  0
CIRCLE
  5
BE
330
1F
100
AcDbEntity
  8
0
  6
Continuous
 62
     7
370
    25
100
AcDbCircle
 10
136.1701403815
 20
291.1778396156
 30
0.0
 40
7.0
  0
CIRCLE
  5
BF
330
1F
100
AcDbEntity
  8
0
  6
Continuous
 62
     7
370
    25
100
AcDbCircle
 10
136.1701403815
 20
291.1778396156
 30
0.0
 40
5.000000000000057
  0
CIRCLE
  5
C0
330
1F
100
AcDbEntity
  8
0
  6
Continuous
 62
     7
370
    25
100
AcDbCircle
 10
136.1701403815
 20
190.1778396156
 30
0.0
 40
7.0
  0
CIRCLE
  5
C1
330
1F
100
AcDbEntity
  8
0
  6
Continuous
 62
     7
370
    25
100
AcDbCircle
 10
136.1701403815
 20
190.1778396156
 30
0.0
 40
5.0
  0
LINE
  5
C2
330
1F
100
AcDbEntity
  8
0
  6
Continuous
 62
     7
370
    25
100
AcDbLine
 10
175.1701403815
 20
299.1778396156
 30
0.0
 11
97.1701403815
 21
299.1778396156
 31
0.0
  0
LINE
  5
C3
330
1F
100
AcDbEntity
  8
0
  6
Continuous
 62
     7
370
    25
100
AcDbLine
 10
167.1701403815
 20
182.1778396156
 30
0.0
 11
105.1701403815
 21
182.1778396156
 31
0.0
  0
LINE
  5
C4
330
1F
100
AcDbEntity
  8
0
  6
Continuous
 62
     1
370
    25
100
AcDbLine
 10
175.1701403815
 20
238.1778396156
 30
0.0
 11
97.1701403815
 21
238.1778396156
 31
0.0
  0
LINE
  5
C5
330
1F
100
AcDbEntity
  8
0
  6
Continuous
 62
     1
370
    25
100
AcDbLine
 10
174.3701403815
 20
236.5778396156
 30
0.0
 11
97.9701403815
 21
236.5778396156
 31
0.0
  0
LINE
  5
C6
330
1F
100
AcDbEntity
  8
0
  6
Continuous
 62
     1
370
    25
100
AcDbLine
 10
167.9701403815
 20
231.7778396156
 30
0.0
 11
104.3701403815
 21
231.7778396156
 31
0.0
  0
LINE
  5
C7
330
1F
100
AcDbEntity
  8
0
  6
Continuous
 62
     1
370
    25
100
AcDbLine
 10
167.1701403815
 20
230.1778396156
 30
0.0
 11
105.1701403815
 21
230.1778396156
 31
0.0
  0
INSERT
  5
D3
330
1F
100
AcDbEntity
  8
FORMAT
 62
     7
100
AcDbBlockReference
  2
SW_CENTERMARKSYMBOL_1
 10
136.1701403815
 20
190.1778396156
 30
0.0
  0
INSERT
  5
DF
330
1F
100
AcDbEntity
  8
FORMAT
 62
     7
100
AcDbBlockReference
  2
SW_CENTERMARKSYMBOL_2
 10
136.1701403815
 20
291.1778396156
 30
0.0
  0
LINE
  5
E0
330
1F
100
AcDbEntity
  8
0
  6
Continuous
 62
     7
370
    25
100
AcDbLine
 10
338.8482082422
 20
78.6754170122
 30
0.0
 11
339.8482082422
 21
78.6754170122
 31
0.0
  0
LINE
  5
E1
330
1F
100
AcDbEntity
  8
0
  6
Continuous
 62
     7
370
    25
100
AcDbLine
 10
278.8482082422
 20
78.6754170122
 30
0.0
 11
324.8668111858
 21
78.6754170122
 31
0.0
  0
LINE
  5
E2
330
1F
100
AcDbEntity
  8
0
  6
Continuous
 62
     7
370
    25
100
AcDbLine
 10
339.8482082422
 20
156.6754170122
 30
0.0
 11
278.8482082422
 21
156.6754170122
 31
0.0
  0
ARC
  5
E3
330
1F
100
AcDbEntity
  8
0
  6
Continuous
 62
     7
370
    25
100
AcDbCircle
 10
278.8482082422
 20
80.6754170122
 30
0.0
 40
2.0
100
AcDbArc
 50
216.8698976458
 51
270.0
  0
ARC
  5
E4
330
1F
100
AcDbEntity
  8
0
  6
Continuous
 62
     7
370
    25
100
AcDbCircle
 10
278.8482082422
 20
154.6754170122
 30
0.0
 40
2.0
100
AcDbArc
 50
90.0
 51
143.1301023542
  0
LINE
  5
E5
330
1F
100
AcDbEntity
  8
0
  6
Continuous
 62
     7
370
    25
100
AcDbLine
 10
277.2482082422
 20
155.8754170122
 30
0.0
 11
272.4482082422
 21
149.4754170122
 31
0.0
  0
LINE
  5
E6
330
1F
100
AcDbEntity
  8
0
  6
Continuous
 62
     7
370
    25
100
AcDbLine
 10
272.4482082422
 20
85.8754170122
 30
0.0
 11
277.2482082422
 21
79.4754170122
 31
0.0
  0
ARC
  5
E7
330
1F
100
AcDbEntity
  8
0
  6
Continuous
 62
     7
370
    25
100
AcDbCircle
 10
270.8482082422
 20
84.6754170122
 30
0.0
 40
2.00000000000002
100
AcDbArc
 50
36.8698976458
 51
90.0
  0
ARC
  5
E8
330
1F
100
AcDbEntity
  8
0
  6
Continuous
 62
     7
370
    25
100
AcDbCircle
 10
270.8482082422
 20
150.6754170122
 30
0.0
 40
2.000000000000011
100
AcDbArc
 50
270.0
 51
323.1301023542
  0
LINE
  5
E9
330
1F
100
AcDbEntity
  8
0
  6
Continuous
 62
     7
370
    25
100
AcDbLine
 10
237.8482082422
 20
86.6754170122
 30
0.0
 11
270.8482082422
 21
86.6754170122
 31
0.0
  0
LINE
  5
EA
330
1F
100
AcDbEntity
  8
0
  6
Continuous
 62
     7
370
    25
100
AcDbLine
 10
222.8482082422
 20
86.6754170122
 30
0.0
 11
223.863752055
 21
86.6754170122
 31
0.0
  0
LINE
  5
EB
330
1F
100
AcDbEntity
  8
0
  6
Continuous
 62
     7
370
    25
100
AcDbLine
 10
270.8482082422
 20
148.6754170122
 30
0.0
 11
222.8482082422
 21
148.6754170122
 31
0.0
  0
LINE
  5
EC
330
1F
100
AcDbEntity
  8
0
  6
Continuous
 62
     7
370
    25
100
AcDbLine
 10
223.8482082422
 20
86.6789079194
 30
0.0
 11
223.8482082422
 21
67.6754170122
 31
0.0
  0
LINE
  5
ED
330
1F
100
AcDbEntity
  8
0
  6
Continuous
 62
     7
370
    25
100
AcDbLine
 10
237.8482082422
 20
67.6754170122
 30
0.0
 11
237.8482082422
 21
86.6754170122
 31
0.0
  0
LINE
  5
EE
330
1F
100
AcDbEntity
  8
0
  6
Continuous
 62
     7
370
    25
100
AcDbLine
 10
324.8482082422
 20
78.6787421527
 30
0.0
 11
324.8482082422
 21
53.1754170122
 31
0.0
  0
LINE
  5
EF
330
1F
100
AcDbEntity
  8
0
  6
Continuous
 62
     7
370
    25
100
AcDbLine
 10
338.8482082422
 20
53.1754170122
 30
0.0
 11
338.8482082422
 21
78.6754170122
 31
0.0
  0
LINE
  5
F0
330
1F
100
AcDbEntity
  8
0
  6
Continuous
 62
     7
370
    25
100
AcDbLine
 10
339.8482082422
 20
117.6754170122
 30
0.0
 11
339.8482082422
 21
156.6754170122
 31
0.0
  0
LINE
  5
F1
330
1F
100
AcDbEntity
  8
0
  6
Continuous
 62
     7
370
    25
100
AcDbLine
 10
339.8482082422
 20
78.6754170122
 30
0.0
 11
339.8482082422
 21
117.6754170122
 31
0.0
  0
SPLINE
  5
F2
330
1F
100
AcDbEntity
  8
0
  6
Continuous
 62
     7
370
    25
100
AcDbSpline
210
0.0
220
0.0
230
1.0
 70
     8
 71
     3
 72
    26
 73
    22
 74
     0
 42
0.00000001
 43
0.00000001
 40
0.0
 40
0.0
 40
0.0
 40
0.0
 40
0.0523460089174937
 40
0.1062247937977903
 40
0.1585666830275425
 40
0.2123987599166703
 40
0.2652537268128642
 40
0.3196187339024197
 40
0.3728276153778418
 40
0.4276109539875721
 40
0.4802467960940409
 40
0.5344465691130778
 40
0.5864739337882785
 40
0.6399953296598625
 40
0.6923271177961053
 40
0.7461343640690282
 40
0.7992044631997748
 40
0.8538087485407707
 40
0.906910836885719
 40
0.9615940998484046
 40
1.0
 40
1.0
 40
1.0
 40
1.0
 10
338.8482082422271
 20
78.67541701223782
 30
0.0
 10
338.829840610128
 20
78.67873513351088
 30
0.0
 10
338.7925675118988
 20
78.68546853602459
 30
0.0
 10
338.4929643861571
 20
78.73822854493586
 30
0.0
 10
338.0197671932833
 20
78.81683982746766
 30
0.0
 10
337.3756899832221
 20
78.91486202864665
 30
0.0
 10
336.5699152689928
 20
79.0225406367229
 30
0.0
 10
335.633684819278
 20
79.12675232075561
 30
0.0
 10
334.5773614646207
 20
79.21701814755238
 30
0.0
 10
333.4524588840351
 20
79.28104873738057
 30
0.0
 10
332.2741592461022
 20
79.31245426744147
 30
0.0
 10
331.1030271448553
 20
79.30746137677424
 30
0.0
 10
329.9476614852983
 20
79.26718998103708
 30
0.0
 10
328.8588019101922
 20
79.19728241271643
 30
0.0
 10
327.8424300980426
 20
79.10417367753728
 30
0.0
 10
326.9399986648413
 20
78.99908101887291
 30
0.0
 10
326.163822819027
 20
78.89201224521129
 30
0.0
 10
325.5492221204445
 20
78.79624131468583
 30
0.0
 10
325.1153098376727
 20
78.72296605844376
 30
0.0
 10
324.8754720035141
 20
78.68032946746781
 30
0.0
 10
324.8693407598319
 20
78.67920913883354
 30
0.0
 10
324.8668111857678
 20
78.67874692359577
 30
0.0
  0
LINE
  5
F3
330
1F
100
AcDbEntity
  8
0
  6
Continuous
 62
     7
370
    25
100
AcDbLine
 10
222.8482082422
 20
117.6754170122
 30
0.0
 11
222.8482082422
 21
148.6754170122
 31
0.0
  0
LINE
  5
F4
330
1F
100
AcDbEntity
  8
0
  6
Continuous
 62
     7
370
    25
100
AcDbLine
 10
222.8482082422
 20
86.6754170122
 30
0.0
 11
222.8482082422
 21
117.6754170122
 31
0.0
  0
SPLINE
  5
F5
330
1F
100
AcDbEntity
  8
0
  6
Continuous
 62
     7
370
    25
100
AcDbSpline
210
0.0
220
0.0
230
1.0
 70
     8
 71
     3
 72
    26
 73
    22
 74
     0
 42
0.00000001
 43
0.00000001
 40
0.0
 40
0.0
 40
0.0
 40
0.0
 40
0.0520119307244437
 40
0.1055552356702394
 40
0.1575608217763848
 40
0.2110321398329989
 40
0.2638311388510873
 40
0.318124378679472
 40
0.3715056042350137
 40
0.426484178857386
 40
0.4789697794835974
 40
0.5330387199377115
 40
0.5845399880312994
 40
0.6375127009098074
 40
0.6894750923013575
 40
0.7428782205075225
 40
0.7960163780748132
 40
0.8506858448906884
 40
0.9039103313112554
 40
0.9587432586077584
 40
1.0
 40
1.0
 40
1.0
 40
1.0
 10
237.8482082422271
 20
86.67541701223782
 30
0.0
 10
237.8300270119948
 20
86.6795482649103
 30
0.0
 10
237.7931292461318
 20
86.68793240569079
 30
0.0
 10
237.4967081703644
 20
86.75363977219341
 30
0.0
 10
237.0290320309226
 20
86.85160494999403
 30
0.0
 10
236.3919263480066
 20
86.97417718617639
 30
0.0
 10
235.5933220890199
 20
87.10955192379232
 30
0.0
 10
234.6613459961239
 20
87.24165363388417
 30
0.0
 10
233.6063162034391
 20
87.3569809880683
 30
0.0
 10
232.4810240679758
 20
87.43934314079976
 30
0.0
 10
231.3028322083877
 20
87.48032324405666
 30
0.0
 10
230.1360163589345
 20
87.47515011724413
 30
0.0
 10
228.9872544301258
 20
87.42561909716945
 30
0.0
 10
227.9055671413376
 20
87.33905778390208
 30
0.0
 10
226.8936084245652
 20
87.2232126798266
 30
0.0
 10
225.9893656559532
 20
87.09149417843344
 30
0.0
 10
225.2063396243167
 20
86.95622882966944
 30
0.0
 10
224.5811339840694
 20
86.8341031963018
 30
0.0
 10
224.1346399150512
 20
86.73949080412609
 30
0.0
 10
223.8812875792687
 20
86.6829182456341
 30
0.0
 10
223.869019455796
 20
86.68011789815868
 30
0.0
 10
223.8637520549985
 20
86.67891555025615
 30
0.0
  0
LINE
  5
F6
330
1F
100
AcDbEntity
  8
0
  6
Continuous
 62
     7
370
    25
100
AcDbLine
 10
223.8482082422
 20
67.6754170122
 30
0.0
 11
237.8482082422
 21
67.6754170122
 31
0.0
  0
LINE
  5
F7
330
1F
100
AcDbEntity
  8
0
  6
Continuous
 62
     7
370
    25
100
AcDbLine
 10
324.8482082422
 20
53.1754170122
 30
0.0
 11
338.8482082422
 21
53.1754170122
 31
0.0
  0
LINE
  5
F8
330
1F
100
AcDbEntity
  8
0
  6
Continuous
 62
     1
370
    25
100
AcDbLine
 10
278.8482082422
 20
117.6754170122
 30
0.0
 11
278.8482082422
 21
156.6754170122
 31
0.0
  0
LINE
  5
F9
330
1F
100
AcDbEntity
  8
0
  6
Continuous
 62
     1
370
    25
100
AcDbLine
 10
278.8482082422
 20
78.6754170122
 30
0.0
 11
278.8482082422
 21
117.6754170122
 31
0.0
  0
LINE
  5
FA
330
1F
100
AcDbEntity
  8
0
  6
Continuous
 62
     1
370
    25
100
AcDbLine
 10
277.2482082422
 20
117.6754170122
 30
0.0
 11
277.2482082422
 21
155.8754170122
 31
0.0
  0
LINE
  5
FB
330
1F
100
AcDbEntity
  8
0
  6
Continuous
 62
     1
370
    25
100
AcDbLine
 10
277.2482082422
 20
79.4754170122
 30
0.0
 11
277.2482082422
 21
117.6754170122
 31
0.0
  0
LINE
  5
FC
330
1F
100
AcDbEntity
  8
0
  6
Continuous
 62
     1
370
    25
100
AcDbLine
 10
272.4482082422
 20
117.6754170122
 30
0.0
 11
272.4482082422
 21
149.4754170122
 31
0.0
  0
LINE
  5
FD
330
1F
100
AcDbEntity
  8
0
  6
Continuous
 62
     1
370
    25
100
AcDbLine
 10
272.4482082422
 20
85.8754170122
 30
0.0
 11
272.4482082422
 21
117.6754170122
 31
0.0
  0
LINE
  5
FE
330
1F
100
AcDbEntity
  8
0
  6
Continuous
 62
     1
370
    25
100
AcDbLine
 10
270.8482082422
 20
117.6754170122
 30
0.0
 11
270.8482082422
 21
148.6754170122
 31
0.0
  0
LINE
  5
FF
330
1F
100
AcDbEntity
  8
0
  6
Continuous
 62
     1
370
    25
100
AcDbLine
 10
270.8482082422
 20
86.6754170122
 30
0.0
 11
270.8482082422
 21
117.6754170122
 31
0.0
  0
LINE
  5
100
330
1F
100
AcDbEntity
  8
0
  6
Continuous
 62
     7
370
    25
100
AcDbLine
 10
97.1701403815
 20
-9.3794165716
 30
0.0
 11
97.1701403815
 21
-70.3794165716
 31
0.0
  0
LINE
  5
101
330
1F
100
AcDbEntity
  8
0
  6
Continuous
 62
     7
370
    25
100
AcDbLine
 10
175.1701403815
 20
-70.3794165716
 30
0.0
 11
175.1701403815
 21
-9.3794165716
 31
0.0
  0
ARC
  5
102
330
1F
100
AcDbEntity
  8
0
  6
Continuous
 62
     7
370
    25
100
AcDbCircle
 10
99.1701403815
 20
-9.3794165716
 30
0.0
 40
2.000000000000006
100
AcDbArc
 50
126.8698976458
 51
180.0
  0
ARC
  5
103
330
1F
100
AcDbEntity
  8
0
  6
Continuous
 62
     7
370
    25
100
AcDbCircle
 10
173.1701403815
 20
-9.3794165716
 30
0.0
 40
2.0
100
AcDbArc
 50
0.0
 51
53.1301023542
  0
LINE
  5
104
330
1F
100
AcDbEntity
  8
0
  6
Continuous
 62
     7
370
    25
100
AcDbLine
 10
174.3701403815
 20
-7.7794165716
 30
0.0
 11
167.9701403815
 21
-2.9794165716
 31
0.0
  0
LINE
  5
105
330
1F
100
AcDbEntity
  8
0
  6
Continuous
 62
     7
370
    25
100
AcDbLine
 10
104.3701403815
 20
-2.9794165716
 30
0.0
 11
97.9701403815
 21
-7.7794165716
 31
0.0
  0
ARC
  5
106
330
1F
100
AcDbEntity
  8
0
  6
Continuous
 62
     7
370
    25
100
AcDbCircle
 10
103.1701403815
 20
-1.3794165716
 30
0.0
 40
2.0
100
AcDbArc
 50
306.8698976458
 51
0.0
  0
ARC
  5
107
330
1F
100
AcDbEntity
  8
0
  6
Continuous
 62
     7
370
    25
100
AcDbCircle
 10
169.1701403815
 20
-1.3794165716
 30
0.0
 40
2.000000000000007
100
AcDbArc
 50
180.0
 51
233.1301023542
  0
LINE
  5
108
330
1F
100
AcDbEntity
  8
0
  6
Continuous
 62
     7
370
    25
100
AcDbLine
 10
105.1701403815
 20
46.6205834284
 30
0.0
 11
105.1701403815
 21
-1.3794165716
 31
0.0
  0
LINE
  5
109
330
1F
100
AcDbEntity
  8
0
  6
Continuous
 62
     7
370
    25
100
AcDbLine
 10
167.1701403815
 20
-1.3794165716
 30
0.0
 11
167.1701403815
 21
46.6205834284
 31
0.0
  0
LINE
  5
10A
330
1F
100
AcDbEntity
  8
0
  6
Continuous
 62
     7
370
    25
100
AcDbLine
 10
97.1701403815
 20
-70.3794165716
 30
0.0
 11
175.1701403815
 21
-70.3794165716
 31
0.0
  0
LINE
  5
10B
330
1F
100
AcDbEntity
  8
0
  6
Continuous
 62
     7
370
    25
100
AcDbLine
 10
105.1701403815
 20
46.6205834284
 30
0.0
 11
167.1701403815
 21
46.6205834284
 31
0.0
  0
LINE
  5
10C
330
1F
100
AcDbEntity
  8
0
  6
Continuous
 62
     1
370
    25
100
AcDbLine
 10
97.1701403815
 20
-9.3794165716
 30
0.0
 11
175.1701403815
 21
-9.3794165716
 31
0.0
  0
LINE
  5
10D
330
1F
100
AcDbEntity
  8
0
  6
Continuous
 62
     1
370
    25
100
AcDbLine
 10
97.9701403815
 20
-7.7794165716
 30
0.0
 11
174.3701403815
 21
-7.7794165716
 31
0.0
  0
LINE
  5
10E
330
1F
100
AcDbEntity
  8
0
  6
Continuous
 62
     1
370
    25
100
AcDbLine
 10
104.3701403815
 20
-2.9794165716
 30
0.0
 11
167.9701403815
 21
-2.9794165716
 31
0.0
  0
LINE
  5
10F
330
1F
100
AcDbEntity
  8
0
  6
Continuous
 62
     1
370
    25
100
AcDbLine
 10
105.1701403815
 20
-1.3794165716
 30
0.0
 11
167.1701403815
 21
-1.3794165716
 31
0.0
  0
LINE
  5
110
330
1F
100
AcDbEntity
  8
0
  6
Continuous
 62
     7
370
    25
100
AcDbLine
 10
293.2294202806
 20
33.6383453662
 30
0.0
 11
250.0959066282
 21
58.5387927768
 31
0.0
  0
LINE
  5
111
330
1F
100
AcDbEntity
  8
0
  6
Continuous
 62
     7
370
    25
100
AcDbLine
 10
211.0990760554
 20
-9.0130184889
 30
0.0
 11
229.2543455913
 21
-19.4938325016
 31
0.0
  0
LINE
  5
112
330
1F
100
AcDbEntity
  8
0
  6
Continuous
 62
     7
370
    25
100
AcDbLine
 10
243.2543455913
 20
-27.5758604708
 30
0.0
 11
254.2325897078
 21
-33.9134658995
 31
0.0
  0
LINE
  5
113
330
1F
100
AcDbEntity
  8
0
  6
Continuous
 62
     7
370
    25
100
AcDbLine
 10
229.2543455913
 20
-10.0901470422
 30
0.0
 11
229.2543455913
 21
-31.16962767
 31
0.0
  0
LINE
  5
114
330
1F
100
AcDbEntity
  8
0
  6
Continuous
 62
     7
370
    25
100
AcDbLine
 10
243.2543455913
 20
-31.16962767
 30
0.0
 11
243.2543455913
 21
-10.0903294699
 31
0.0
  0
SPLINE
  5
115
330
1F
100
AcDbEntity
  8
0
  6
Continuous
 62
     7
370
    25
100
AcDbSpline
210
0.0
220
0.0
230
1.0
 70
     8
 71
     3
 72
    26
 73
    22
 74
     0
 42
0.00000001
 43
0.00000001
 40
0.0
 40
0.0
 40
0.0
 40
0.0
 40
0.0467694207009986
 40
0.1005057304362933
 40
0.1542839131935226
 40
0.2081004903385445
 40
0.2619484648251263
 40
0.3158162057980566
 40
0.369680288098186
 40
0.4235120168093643
 40
0.4772756936444769
 40
0.5309271285396955
 40
0.5844149372419014
 40
0.6376837613458995
 40
0.690679675249914
 40
0.7433574553316359
 40
0.7956886201026642
 40
0.8476685427300825
 40
0.8993208586053422
 40
0.9506979630835014
 40
1.0
 40
1.0
 40
1.0
 40
1.0
 10
301.3133220864923
 20
8.161495205564764
 30
0.0
 10
301.3963109459647
 20
8.691734615242929
 30
0.0
 10
301.5746508914747
 20
9.831199213628992
 30
0.0
 10
301.754241070208
 20
11.54896937372964
 30
0.0
 10
301.8711495132114
 20
13.31597222390344
 30
0.0
 10
301.907065938016
 20
15.04755143874268
 30
0.0
 10
301.8638684990768
 20
16.73973808787618
 30
0.0
 10
301.7404066431577
 20
18.38753672796334
 30
0.0
 10
301.5366130157182
 20
19.98615396205946
 30
0.0
 10
301.2524610656579
 20
21.53067588404086
 30
0.0
 10
300.8883027865148
 20
23.0162091541244
 30
0.0
 10
300.4448551278431
 20
24.43785624088081
 30
0.0
 10
299.9232898550463
 20
25.79076205358177
 30
0.0
 10
299.3252856745027
 20
27.07021135880105
 30
0.0
 10
298.6530385663254
 20
28.27173338623845
 30
0.0
 10
297.9092797934342
 20
29.39132428394439
 30
0.0
 10
297.0970141792961
 20
30.42527500990088
 30
0.0
 10
296.2200257487094
 20
31.37136183316007
 30
0.0
 10
295.2803279676965
 20
32.2247593972944
 30
0.0
 10
294.2989115723425
 20
32.98378376501515
 30
0.0
 10
293.6023276490077
 20
33.40933864376887
 30
0.0
 10
293.2612142284128
 20
33.61773059121374
 30
0.0
  0
SPLINE
  5
116
330
1F
100
AcDbEntity
  8
0
  6
Continuous
 62
     7
370
    25
100
AcDbSpline
210
0.0
220
0.0
230
1.0
 70
     8
 71
     3
 72
    27
 73
    23
 74
     0
 42
0.00000001
 43
0.00000001
 40
0.0
 40
0.0
 40
0.0
 40
0.0
 40
0.0280582015364202
 40
0.0775784415765416
 40
0.1271165493790875
 40
0.1767707779013989
 40
0.226627086429997
 40
0.2767512792780673
 40
0.3271842007282194
 40
0.3779402676989123
 40
0.4290094432299409
 40
0.4803620935892653
 40
0.5319555770849478
 40
0.5837411450102091
 40
0.6356699113889787
 40
0.6876971528053923
 40
0.7397847771879988
 40
0.7919022294090444
 40
0.8440229360825344
 40
0.8961293032694374
 40
0.9482116460030107
 40
1.0
 40
1.0
 40
1.0
 40
1.0
 10
254.1586291499244
 20
-33.85513689818141
 30
0.0
 10
254.3600573455998
 20
-33.9752893745372
 30
0.0
 10
254.9169884621501
 20
-34.30750032737203
 30
0.0
 10
255.8876666582833
 20
-34.74787665492666
 30
0.0
 10
257.0604561303049
 20
-35.18288016083797
 30
0.0
 10
258.2802274503817
 20
-35.51653242282454
 30
0.0
 10
259.5412476493128
 20
-35.75359917648584
 30
0.0
 10
260.8417546414813
 20
-35.89175337437372
 30
0.0
 10
262.1786246486096
 20
-35.93057217352528
 30
0.0
 10
263.5486563365041
 20
-35.86925840911204
 30
0.0
 10
264.9481512308554
 20
-35.7074289894253
 30
0.0
 10
266.3730438358194
 20
-35.44506214053455
 30
0.0
 10
267.8189608951837
 20
-35.08262513170058
 30
0.0
 10
269.2813467380251
 20
-34.62108730926509
 30
0.0
 10
270.7555824201764
 20
-34.06190667033538
 30
0.0
 10
272.2370810211206
 20
-33.40696013438747
 30
0.0
 10
273.7213697533448
 20
-32.65853487162381
 30
0.0
 10
275.2040340900266
 20
-31.81906431952995
 30
0.0
 10
276.6809686608509
 20
-30.89187916211264
 30
0.0
 10
278.1475813233669
 20
-29.87813142905563
 30
0.0
 10
279.5993824274933
 20
-28.78985279723052
 30
0.0
 10
280.5513388323088
 20
-27.99891600542456
 30
0.0
 10
281.0259698575553
 20
-27.60456691706191
 30
0.0
  0
LINE
  5
117
330
1F
100
AcDbEntity
  8
0
  6
Continuous
 62
     7
370
    25
100
AcDbLine
 10
286.5109460832
 20
-22.2084902342
 30
0.0
 11
287.9534657133
 21
-20.5795466068
 31
0.0
  0
LINE
  5
118
330
1F
100
AcDbEntity
  8
0
  6
Continuous
 62
     7
370
    25
100
AcDbLine
 10
298.5457114055
 20
-2.2312508255
 30
0.0
 11
299.2349644934
 21
-0.1674556794
 31
0.0
  0
LINE
  5
119
330
1F
100
AcDbEntity
  8
0
  6
Continuous
 62
     7
370
    25
100
AcDbLine
 10
328.8277250965
 20
3.8505273361
 30
0.0
 11
301.5733324585
 21
19.5841533064
 31
0.0
  0
LINE
  5
11A
330
1F
100
AcDbEntity
  8
0
  6
Continuous
 62
     7
370
    25
100
AcDbLine
 10
270.5797461338
 20
-34.113124343
 30
0.0
 11
297.8302443848
 21
-49.8445021315
 31
0.0
  0
LINE
  5
11B
330
1F
100
AcDbEntity
  8
0
  6
Continuous
 62
     7
370
    25
100
AcDbLine
 10
300.6721304911
 20
-44.7191232085
 30
0.0
 11
300.6721304911
 21
-60.5583955447
 31
0.0
  0
LINE
  5
11C
330
1F
100
AcDbEntity
  8
0
  6
Continuous
 62
     7
370
    25
100
AcDbLine
 10
314.6721304911
 20
-60.5583955447
 30
0.0
 11
314.6721304911
 21
-44.7192615808
 31
0.0
  0
LWPOLYLINE
  5
11D
330
1F
100
AcDbEntity
  8
0
  6
Continuous
 62
     7
370
    25
100
AcDbPolyline
 90
      114
 70
   128
 43
0.0
 10
203.0203268755
 20
8.8429289634
 10
203.062946593
 20
10.6373162039
 10
203.1906740104
 20
12.4753647747
 10
203.4031143295
 20
14.351393373
 10
203.6996109095
 20
16.2596033019
 10
204.0792472965
 20
18.1940963938
 10
204.5408500561
 20
20.1488932414
 10
205.0829924007
 20
22.1179516799
 10
205.7039985994
 20
24.0951854622
 10
206.4019491575
 20
26.0744830722
 10
207.1746867499
 20
28.0497266144
 10
208.019822889
 20
30.0148107241
 10
208.9347453075
 20
31.9636614389
 10
209.9166260324
 20
33.8902549732
 10
210.9624301269
 20
35.7886363365
 10
212.0689250704
 20
37.6529377409
 10
213.2326907503
 20
39.4773967376
 10
214.4501300338
 20
41.2563740284
 10
215.7174798857
 20
42.9843708965
 10
217.0308230002
 20
44.6560462025
 10
218.3860999092
 20
46.2662328939
 10
219.7791215292
 20
47.8099539759
 10
221.2055821104
 20
49.2824378951
 10
222.6610725448
 20
50.6791332881
 10
224.1410939948
 20
51.9957230494
 10
225.6410717991
 20
53.2281376756
 10
227.1563696121
 20
54.3725678437
 10
228.6823037352
 20
55.4254761856
 10
230.2141575934
 20
56.383608222
 10
231.7471963142
 20
57.2440024216
 10
233.2766813629
 20
58.0039993554
 10
234.7978851888
 20
58.6612499162
 10
236.306105838
 20
59.2137225804
 10
237.7966814869
 20
59.6597096865
 10
239.2650048517
 20
59.9978327141
 10
240.7065374289
 20
60.227046544
 10
242.116823524
 20
60.3466426897
 10
243.4915040235
 20
60.3562514862
 10
244.8263298687
 20
60.2558432332
 10
246.1171751894
 20
60.045728287
 10
247.3600500568
 20
59.7265561009
 10
248.5511128157
 20
59.2993132176
 10
249.6866819596
 20
58.7653202206
 10
250.7632475093
 20
58.1262276515
 10
251.7774818623
 20
57.3840109089
 10
252.7262500783
 20
56.5409641422
 10
253.6066195693
 20
55.5996931606
 10
254.4158691635
 20
54.5631073788
 10
255.1514975169
 20
53.434410824
 10
255.8112308442
 20
52.2170922326
 10
256.3930299478
 20
50.9149142667
 10
256.8950965197
 20
49.5319018836
 10
257.3158787012
 20
48.0723298954
 10
257.6540758784
 20
46.5407097555
 10
257.9086427034
 20
44.9417756139
 10
258.0787923247
 20
43.2804696845
 10
258.1639988196
 20
41.5619269686
 10
258.1639988196
 20
39.7914593833
 10
258.0787923247
 20
37.9745393425
 10
257.9086427034
 20
36.1167828419
 10
257.6540758784
 20
34.2239321004
 10
257.3158787012
 20
32.3018378111
 10
256.8950965197
 20
30.3564410573
 10
256.3930299478
 20
28.3937549489
 10
255.8112308442
 20
26.4198460362
 10
255.1514975169
 20
24.4408155585
 10
254.4158691635
 20
22.4627805857
 10
253.6066195693
 20
20.4918551104
 10
252.7262500783
 20
18.5341311503
 10
251.7774818623
 20
16.5956599181
 10
250.7632475093
 20
14.6824331172
 10
249.6866819596
 20
12.800364422
 10
248.5511128157
 20
10.9552711989
 10
247.3600500568
 20
9.1528565255
 10
246.1171751894
 20
7.3986915622
 10
244.8263298687
 20
5.6981983323
 10
243.4915040235
 20
4.0566329629
 10
242.116823524
 20
2.4790694386
 10
240.7065374289
 20
0.9703839178
 10
239.2650048517
 20
-0.464760339
 10
237.7966814869
 20
-1.8219273832
 10
236.306105838
 20
-3.0969222892
 10
234.7978851888
 20
-4.2858041208
 10
233.2766813629
 20
-5.3848981124
 10
231.7471963142
 20
-6.3908070276
 10
230.2141575934
 20
-7.3004216593
 10
228.6823037352
 20
-8.1109304411
 10
227.1563696121
 20
-8.8198281366
 10
225.6410717991
 20
-9.4249235837
 10
224.1410939948
 20
-9.9243464671
 10
222.6610725448
 20
-10.3165530992
 10
221.2055821104
 20
-10.6003311919
 10
219.7791215292
 20
-10.7748036032
 10
218.3860999092
 20
-10.8394310491
 10
217.0308230002
 20
-10.7940137697
 10
215.7174798857
 20
-10.6386921472
 10
214.4501300338
 20
-10.373946272
 10
213.2326907503
 20
-10.0005944583
 10
212.0689250704
 20
-9.5197907151
 10
210.9624301269
 20
-8.9330211794
 10
209.9166260324
 20
-8.2420995221
 10
208.9347453075
 20
-7.4491613424
 10
208.019822889
 20
-6.5566575668
 10
207.1746867499
 20
-5.5673468734
 10
206.4019491575
 20
-4.4842871648
 10
205.7039985994
 20
-3.3108261165
 10
205.0829924007
 20
-2.0505908294
 10
204.5408500561
 20
-0.7074766184
 10
204.0792472965
 20
0.7143650272
 10
203.6996109095
 20
2.2105392766
 10
203.4031143295
 20
3.7764215408
 10
203.1906740104
 20
5.4071717676
 10
203.062946593
 20
7.0977494013
 10
203.0203268755
 20
8.8429289634
  0
SPLINE
  5
11E
330
1F
100
AcDbEntity
  8
0
  6
Continuous
 62
     7
370
    25
100
AcDbSpline
210
0.0
220
0.0
230
1.0
 70
     8
 71
     3
 72
    12
 73
     8
 74
     0
 42
0.00000001
 43
0.00000001
 40
0.0
 40
0.0
 40
0.0
 40
0.0
 40
0.2124298434817579
 40
0.4248690992775715
 40
0.6371963223901697
 40
0.8495372755105718
 40
1.0
 40
1.0
 40
1.0
 40
1.0
 10
231.3045981229981
 20
-7.490408575512276
 30
0.0
 10
231.0425318887454
 20
-7.654601339378241
 30
0.0
 10
230.518387808643
 20
-7.982994142141917
 30
0.0
 10
229.925411249148
 20
-8.52678604732364
 30
0.0
 10
229.5096152887018
 20
-9.09261006226007
 30
0.0
 10
229.278652051132
 20
-9.617842097481198
 30
0.0
 10
229.2764173801351
 20
-9.951979505841496
 30
0.0
 10
229.2754906125544
 20
-10.09055369325586
 30
0.0
  0
SPLINE
  5
11F
330
1F
100
AcDbEntity
  8
0
  6
Continuous
 62
     7
370
    25
100
AcDbSpline
210
0.0
220
0.0
230
1.0
 70
     8
 71
     3
 72
    21
 73
    17
 74
     0
 42
0.00000001
 43
0.00000001
 40
0.0
 40
0.0
 40
0.0
 40
0.0
 40
0.0401210418654293
 40
0.1120849708719944
 40
0.1840441813971225
 40
0.2556700076734316
 40
0.3272920887771735
 40
0.3978708769522463
 40
0.4684526936346643
 40
0.538922594206509
 40
0.6093971920443523
 40
0.6808484484853027
 40
0.7522989395266114
 40
0.8243078018871791
 40
0.8963113038822293
 40
1.0
 40
1.0
 40
1.0
 40
1.0
 10
243.2299474200672
 20
-10.09047282036196
 30
0.0
 10
243.2334753637169
 20
-9.947101665327983
 30
0.0
 10
243.2433312757977
 20
-9.546569899733099
 30
0.0
 10
243.0378668417306
 20
-8.900125890276431
 30
0.0
 10
242.6416036573459
 20
-8.185875104297827
 30
0.0
 10
242.049933186666
 20
-7.545114911009269
 30
0.0
 10
241.3029942256317
 20
-6.998451390299101
 30
0.0
 10
240.4145120004028
 20
-6.56622961806881
 30
0.0
 10
239.4190827591256
 20
-6.25201739513282
 30
0.0
 10
238.3365672698432
 20
-6.064450300494301
 30
0.0
 10
237.1947430024896
 20
-5.996683132049408
 30
0.0
 10
236.0218033050853
 20
-6.050726632419334
 30
0.0
 10
234.8458349547645
 20
-6.214982255748266
 30
0.0
 10
233.7093398799121
 20
-6.484268163807569
 30
0.0
 10
232.4701613445565
 20
-6.888772528823375
 30
0.0
 10
231.7371822158333
 20
-7.267118942946587
 30
0.0
 10
231.3045981229981
 20
-7.49040857551228
 30
0.0
  0
LWPOLYLINE
  5
120
330
1F
100
AcDbEntity
  8
0
  6
Continuous
 62
     7
370
    25
100
AcDbPolyline
 90
      103
 70
   128
 43
0.0
 10
208.3236277344
 20
11.9044593827
 10
208.3658739315
 20
13.5122578498
 10
208.4924522682
 20
15.1627338075
 10
208.7028825897
 20
16.849626435
 10
208.9963666617
 20
18.5665367709
 10
209.3717911986
 20
20.3069519862
 10
209.8277320864
 20
22.0642700898
 10
210.3624597853
 20
23.8318249722
 10
210.9739458899
 20
25.6029116924
 10
211.6598708239
 20
27.3708119117
 10
212.4176326392
 20
29.1288193791
 10
213.2443568857
 20
30.8702653701
 10
214.136907515
 20
32.5885439835
 10
215.091898777
 20
34.2771372001
 10
216.1057080626
 20
35.9296396073
 10
217.174489646
 20
37.5397826975
 10
218.2941892726
 20
39.1014586465
 10
219.4605595381
 20
40.6087434824
 10
220.6691760007
 20
42.0559195576
 10
221.915453964
 20
43.4374972376
 10
223.1946658689
 20
44.7482357249
 10
224.5019592266
 20
45.9831629396
 10
225.8323750254
 20
47.1375943797
 10
227.1808665425
 20
48.2071508913
 10
228.5423184878
 20
49.1877752803
 10
229.9115664078
 20
50.0757477024
 10
231.2834162759
 20
50.8676997741
 10
232.6526641958
 20
51.5606273499
 10
234.0141161411
 20
52.1519019182
 10
235.3626076583
 20
52.639280572
 10
236.6930234571
 20
53.0209145171
 10
238.0003168147
 20
53.2953560853
 10
239.2795287196
 20
53.4615642257
 10
240.525806683
 20
53.5189084539
 10
241.7344231455
 20
53.4671712436
 10
242.900793411
 20
53.3065488518
 10
244.0204930376
 20
53.0376505741
 10
245.089274621
 20
52.6614964339
 10
246.1030839067
 20
52.1795133127
 10
247.0580751686
 20
51.5935295375
 10
247.950625798
 20
50.9057679455
 10
248.7773500444
 20
50.118837452
 10
249.5351118597
 20
49.2357231539
 10
250.2210367938
 20
48.2597750063
 10
250.8325228984
 20
47.1946951147
 10
251.3672505972
 20
46.044523692
 10
251.8231914851
 20
44.8136237324
 10
252.1986160219
 20
43.506664461
 10
252.4921000939
 20
42.128603622
 10
252.7025304154
 20
40.6846686722
 10
252.8291087522
 20
39.1803369514
 10
252.8713549492
 20
37.6213149052
 10
252.8291087522
 20
36.0135164381
 10
252.7025304154
 20
34.3630404804
 10
252.4921000939
 20
32.6761478529
 10
252.1986160219
 20
30.959237517
 10
251.8231914851
 20
29.2188223017
 10
251.3672505972
 20
27.4615041981
 10
250.8325228984
 20
25.6939493157
 10
250.2210367938
 20
23.9228625955
 10
249.5351118597
 20
22.1549623762
 10
248.7773500444
 20
20.3969549088
 10
247.950625798
 20
18.6555089178
 10
247.0580751686
 20
16.9372303044
 10
246.1030839067
 20
15.2486370878
 10
245.089274621
 20
13.5961346806
 10
244.0204930376
 20
11.9859915904
 10
242.900793411
 20
10.4243156414
 10
241.7344231455
 20
8.9170308055
 10
240.525806683
 20
7.4698547303
 10
239.2795287196
 20
6.0882770503
 10
238.0003168147
 20
4.777538563
 10
236.6930234571
 20
3.5426113483
 10
235.3626076583
 20
2.3881799082
 10
234.0141161411
 20
1.3186233966
 10
232.6526641958
 20
0.3379990076
 10
231.2834162759
 20
-0.5499734145
 10
229.9115664078
 20
-1.3419254862
 10
228.5423184878
 20
-2.034853062
 10
227.1808665425
 20
-2.6261276303
 10
225.8323750254
 20
-3.1135062841
 10
224.5019592266
 20
-3.4951402292
 10
223.1946658689
 20
-3.7695817974
 10
221.915453964
 20
-3.9357899379
 10
220.6691760007
 20
-3.9931341661
 10
219.4605595381
 20
-3.9413969557
 10
218.2941892726
 20
-3.7807745639
 10
217.174489646
 20
-3.5118762862
 10
216.1057080626
 20
-3.135722146
 10
215.091898777
 20
-2.6537390248
 10
214.136907515
 20
-2.0677552496
 10
213.2443568857
 20
-1.3799936576
 10
212.4176326392
 20
-0.5930631641
 10
211.6598708239
 20
0.2900511339
 10
210.9739458899
 20
1.2659992816
 10
210.3624597853
 20
2.3310791732
 10
209.8277320864
 20
3.4812505959
 10
209.3717911986
 20
4.7121505555
 10
208.9963666617
 20
6.0191098269
 10
208.7028825897
 20
7.3971706659
 10
208.4924522682
 20
8.8411056157
 10
208.3658739315
 20
10.3454373365
 10
208.3236277344
 20
11.9044593827
  0
LWPOLYLINE
  5
121
330
1F
100
AcDbEntity
  8
0
  6
Continuous
 62
     7
370
    25
100
AcDbPolyline
 90
       49
 70
   128
 43
0.0
 10
231.304598123
 20
-28.3121992786
 10
231.9930155882
 20
-27.9636757271
 10
232.7543455913
 20
-27.6700069023
 10
233.5755615647
 20
-27.436217559
 10
234.4426122756
 20
-27.2663078979
 10
235.3406622458
 20
-27.1631851202
 10
236.2543455913
 20
-27.1286136854
 10
237.1680289368
 20
-27.1631851202
 10
238.066078907
 20
-27.2663078979
 10
238.9331296179
 20
-27.436217559
 10
239.7543455913
 20
-27.6700069023
 10
240.5156755944
 20
-27.9636757271
 10
241.2040930596
 20
-28.3121992786
 10
241.8078189733
 20
-28.7096142221
 10
242.3165234178
 20
-29.1491206777
 10
242.7215023189
 20
-29.6231985681
 10
243.0158263753
 20
-30.1237362892
 10
243.1944596209
 20
-30.6421695019
 10
243.2543455913
 20
-31.16962767
 10
243.1944596209
 20
-31.6970858381
 10
243.0158263753
 20
-32.2155190507
 10
242.7215023189
 20
-32.7160567718
 10
242.3165234178
 20
-33.1901346623
 10
241.8078189733
 20
-33.6296411179
 10
241.2040930596
 20
-34.0270560614
 10
240.5156755944
 20
-34.3755796128
 10
239.7543455913
 20
-34.6692484377
 10
238.9331296179
 20
-34.9030377809
 10
238.066078907
 20
-35.0729474421
 10
237.1680289368
 20
-35.1760702197
 10
236.2543455913
 20
-35.2106416546
 10
235.3406622458
 20
-35.1760702197
 10
234.4426122756
 20
-35.0729474421
 10
233.5755615647
 20
-34.9030377809
 10
232.7543455913
 20
-34.6692484377
 10
231.9930155882
 20
-34.3755796128
 10
231.304598123
 20
-34.0270560614
 10
230.7008722093
 20
-33.6296411179
 10
230.1921677648
 20
-33.1901346623
 10
229.7871888637
 20
-32.7160567718
 10
229.4928648073
 20
-32.2155190507
 10
229.3142315617
 20
-31.6970858381
 10
229.2543455913
 20
-31.16962767
 10
229.3142315617
 20
-30.6421695019
 10
229.4928648073
 20
-30.1237362892
 10
229.7871888637
 20
-29.6231985681
 10
230.1921677648
 20
-29.1491206777
 10
230.7008722093
 20
-28.7096142221
 10
231.304598123
 20
-28.3121992786
  0
LWPOLYLINE
  5
122
330
1F
100
AcDbEntity
  8
0
  6
Continuous
 62
     7
370
    25
100
AcDbPolyline
 90
       41
 70
   128
 43
0.0
 10
232.7188116854
 20
-29.1286073904
 10
233.3154193298
 20
-28.8344498214
 10
233.9843930926
 20
-28.597792081
 10
234.7092606194
 20
-28.4244614682
 10
235.4721732661
 20
-28.318725958
 10
236.2543455913
 20
-28.2831891096
 10
237.0365179165
 20
-28.318725958
 10
237.7994305632
 20
-28.4244614682
 10
238.52429809
 20
-28.597792081
 10
239.1932718528
 20
-28.8344498214
 10
239.7898794972
 20
-29.1286073904
 10
240.2994305632
 20
-29.4730216525
 10
240.7093782122
 20
-29.8592119855
 10
241.0096281728
 20
-30.2776691016
 10
241.1927872943
 20
-30.7180891979
 10
241.2543455913
 20
-31.16962767
 10
241.1927872943
 20
-31.6211661421
 10
241.0096281728
 20
-32.0615862384
 10
240.7093782122
 20
-32.4800433545
 10
240.2994305632
 20
-32.8662336874
 10
239.7898794972
 20
-33.2106479495
 10
239.1932718528
 20
-33.5048055186
 10
238.52429809
 20
-33.741463259
 10
237.7994305632
 20
-33.9147938718
 10
237.0365179165
 20
-34.020529382
 10
236.2543455913
 20
-34.0560662304
 10
235.4721732661
 20
-34.020529382
 10
234.7092606194
 20
-33.9147938718
 10
233.9843930926
 20
-33.741463259
 10
233.3154193298
 20
-33.5048055186
 10
232.7188116854
 20
-33.2106479495
 10
232.2092606194
 20
-32.8662336874
 10
231.7993129704
 20
-32.4800433545
 10
231.4990630098
 20
-32.0615862384
 10
231.3159038883
 20
-31.6211661421
 10
231.2543455913
 20
-31.16962767
 10
231.3159038883
 20
-30.7180891979
 10
231.4990630098
 20
-30.2776691016
 10
231.7993129704
 20
-29.8592119855
 10
232.2092606194
 20
-29.4730216525
 10
232.7188116854
 20
-29.1286073904
  0
ARC
  5
123
330
1F
100
AcDbEntity
  8
0
  6
Continuous
 62
     7
370
    25
100
AcDbCircle
 10
240.2573618032
 20
19.1627882667
 30
0.0
 40
62.04071824327563
100
AcDbArc
 50
311.1226105176
 51
349.7358207326
  0
ARC
  5
124
330
1F
100
AcDbEntity
  8
0
  6
Continuous
 62
     7
370
    25
100
AcDbCircle
 10
247.5494705969
 20
14.9767178245
 30
0.0
 40
53.82128539591732
100
AcDbArc
 50
318.6516244137
 51
341.353752119
  0
LWPOLYLINE
  5
125
330
1F
100
AcDbEntity
  8
0
  6
Continuous
 62
     7
370
    25
100
AcDbPolyline
 90
       39
 70
   128
 43
0.0
 10
328.8277250965
 20
3.8505273361
 10
328.9490462903
 20
3.7793851227
 10
329.8749377256
 20
3.1581546074
 10
330.7368160832
 20
2.4357349287
 10
331.5313469231
 20
1.6149209881
 10
332.2554563599
 20
0.6988883552
 10
332.9063429547
 20
-0.3088190176
 10
333.4814885539
 20
-1.4043025063
 10
333.9786680307
 20
-2.5833238982
 10
334.3959578945
 20
-3.8413217884
 10
334.7317437318
 20
-5.1734292275
 10
334.9847264524
 20
-6.5744925506
 10
335.1539273153
 20
-8.039091316
 10
335.2386917152
 20
-9.5615592755
 10
335.2386917152
 20
-11.1360062963
 10
335.1539273153
 20
-12.7563411488
 10
334.9847264524
 20
-14.4162950722
 10
334.7317437318
 20
-16.1094460273
 10
334.3959578945
 20
-17.8292435419
 10
333.9786680307
 20
-19.5690340535
 10
333.4814885539
 20
-21.3220866508
 10
332.9063429547
 20
-23.0816191136
 10
332.2554563599
 20
-24.8408241527
 10
331.5313469231
 20
-26.5928957457
 10
330.7368160832
 20
-28.3310554678
 10
329.8749377256
 20
-30.0485787168
 10
328.9490462903
 20
-31.7388207289
 10
327.9627238712
 20
-33.3952422861
 10
326.9197863583
 20
-35.0114350151
 10
325.8242686743
 20
-36.5811461803
 10
324.6804091641
 20
-38.0983028742
 10
323.492633198
 20
-39.5570355121
 10
322.2655360505
 20
-40.951700541
 10
321.003865122
 20
-42.2769022727
 10
319.7125015724
 20
-43.5275137593
 10
318.3964414362
 20
-44.6986966277
 10
317.0607762945
 20
-45.7859197991
 10
315.7106735762
 20
-46.7849770182
 10
314.6721304911
 20
-47.4868078686
  0
ARC
  5
126
330
1F
100
AcDbEntity
  8
0
  6
Continuous
 62
     7
370
    25
100
AcDbCircle
 10
303.1178713013
 20
-40.6482172412
 30
0.0
 40
10.60804667185225
100
AcDbArc
 50
240.1022073773
 51
256.670236405
  0
SPLINE
  5
127
330
1F
100
AcDbEntity
  8
0
  6
Continuous
 62
     7
370
    25
100
AcDbSpline
210
0.0
220
0.0
230
1.0
 70
     8
 71
     3
 72
    12
 73
     8
 74
     0
 42
0.00000001
 43
0.00000001
 40
0.0
 40
0.0
 40
0.0
 40
0.0
 40
0.2110898893546259
 40
0.4221942749143364
 40
0.6331259238916569
 40
0.8440788731495659
 40
1.0
 40
1.0
 40
1.0
 40
1.0
 10
302.7223830228396
 20
-42.18669172747303
 30
0.0
 10
302.461586170148
 20
-42.34928632581244
 30
0.0
 10
301.9399745550265
 20
-42.67448668837253
 30
0.0
 10
301.3491423174447
 20
-43.20391720789869
 30
0.0
 10
300.9332648018948
 20
-43.74917538308677
 30
0.0
 10
300.6988998736485
 20
-44.25733735143817
 30
0.0
 10
300.6941029871517
 20
-44.58170201932354
 30
0.0
 10
300.6920643150386
 20
-44.71955668887021
 30
0.0
  0
SPLINE
  5
128
330
1F
100
AcDbEntity
  8
0
  6
Continuous
 62
     7
370
    25
100
AcDbSpline
210
0.0
220
0.0
230
1.0
 70
     8
 71
     3
 72
    22
 73
    18
 74
     0
 42
0.00000001
 43
0.00000001
 40
0.0
 40
0.0
 40
0.0
 40
0.0
 40
0.0334768279988442
 40
0.1056110923857246
 40
0.1777380879784266
 40
0.2494425569452406
 40
0.3211404783060569
 40
0.3911630231445026
 40
0.4611899621601759
 40
0.5309384924676069
 40
0.600694460461697
 40
0.671958542626435
 40
0.7432220191334892
 40
0.8154679401228493
 40
0.8877053567097702
 40
0.9438534958132542
 40
1.0
 40
1.0
 40
1.0
 40
1.0
 10
314.6477709534087
 20
-44.71919172993098
 30
0.0
 10
314.6529503110371
 20
-44.59619515502929
 30
0.0
 10
314.6692899002302
 20
-44.2081714559046
 30
0.0
 10
314.4822703161773
 20
-43.5635778815149
 30
0.0
 10
314.1037882532664
 20
-42.82407131530325
 30
0.0
 10
313.5260749480794
 20
-42.16179652487119
 30
0.0
 10
312.7931472652555
 20
-41.60103360156761
 30
0.0
 10
311.9192528110491
 20
-41.16284379116797
 30
0.0
 10
310.9412638996532
 20
-40.8492956854757
 30
0.0
 10
309.8763404522483
 20
-40.66688767191881
 30
0.0
 10
308.7489695305852
 20
-40.60641095284259
 30
0.0
 10
307.5844679228741
 20
-40.66884494081214
 30
0.0
 10
306.4087174095156
 20
-40.84246906043013
 30
0.0
 10
305.261596530481
 20
-41.11873618025828
 30
0.0
 10
304.2578134950481
 20
-41.45501555733198
 30
0.0
 10
303.4046355433416
 20
-41.81561850471074
 30
0.0
 10
302.9497983223229
 20
-42.06300185378429
 30
0.0
 10
302.7223830228396
 20
-42.18669172747303
 30
0.0
  0
LWPOLYLINE
  5
129
330
1F
100
AcDbEntity
  8
0
  6
Continuous
 62
     7
370
    25
100
AcDbPolyline
 90
       49
 70
   128
 43
0.0
 10
302.7223830228
 20
-57.7009671533
 10
303.4108004881
 20
-57.3524436018
 10
304.1721304911
 20
-57.058774777
 10
304.9933464646
 20
-56.8249854337
 10
305.8603971754
 20
-56.6550757726
 10
306.7584471456
 20
-56.5519529949
 10
307.6721304911
 20
-56.5173815601
 10
308.5858138367
 20
-56.5519529949
 10
309.4838638069
 20
-56.6550757726
 10
310.3509145177
 20
-56.8249854337
 10
311.1721304911
 20
-57.058774777
 10
311.9334604942
 20
-57.3524436018
 10
312.6218779595
 20
-57.7009671533
 10
313.2256038732
 20
-58.0983820968
 10
313.7343083176
 20
-58.5378885524
 10
314.1392872187
 20
-59.0119664428
 10
314.4336112752
 20
-59.5125041639
 10
314.6122445208
 20
-60.0309373766
 10
314.6721304911
 20
-60.5583955447
 10
314.6122445208
 20
-61.0858537128
 10
314.4336112752
 20
-61.6042869254
 10
314.1392872187
 20
-62.1048246465
 10
313.7343083176
 20
-62.578902537
 10
313.2256038732
 20
-63.0184089926
 10
312.6218779595
 20
-63.4158239361
 10
311.9334604942
 20
-63.7643474875
 10
311.1721304911
 20
-64.0580163124
 10
310.3509145177
 20
-64.2918056556
 10
309.4838638069
 20
-64.4617153168
 10
308.5858138367
 20
-64.5648380945
 10
307.6721304911
 20
-64.5994095293
 10
306.7584471456
 20
-64.5648380945
 10
305.8603971754
 20
-64.4617153168
 10
304.9933464646
 20
-64.2918056556
 10
304.1721304911
 20
-64.0580163124
 10
303.4108004881
 20
-63.7643474875
 10
302.7223830228
 20
-63.4158239361
 10
302.1186571091
 20
-63.0184089926
 10
301.6099526647
 20
-62.578902537
 10
301.2049737636
 20
-62.1048246465
 10
300.9106497071
 20
-61.6042869254
 10
300.7320164615
 20
-61.0858537128
 10
300.6721304911
 20
-60.5583955447
 10
300.7320164615
 20
-60.0309373766
 10
300.9106497071
 20
-59.5125041639
 10
301.2049737636
 20
-59.0119664428
 10
301.6099526647
 20
-58.5378885524
 10
302.1186571091
 20
-58.0983820968
 10
302.7223830228
 20
-57.7009671533
  0
LWPOLYLINE
  5
12A
330
1F
100
AcDbEntity
  8
0
  6
Continuous
 62
     7
370
    25
100
AcDbPolyline
 90
       41
 70
   128
 43
0.0
 10
304.1365965852
 20
-58.5173752651
 10
304.7332042297
 20
-58.2232176961
 10
305.4021779924
 20
-57.9865599557
 10
306.1270455193
 20
-57.8132293429
 10
306.8899581659
 20
-57.7074938327
 10
307.6721304911
 20
-57.6719569843
 10
308.4543028163
 20
-57.7074938327
 10
309.217215463
 20
-57.8132293429
 10
309.9420829898
 20
-57.9865599557
 10
310.6110567526
 20
-58.2232176961
 10
311.2076643971
 20
-58.5173752651
 10
311.717215463
 20
-58.8617895272
 10
312.1271631121
 20
-59.2479798602
 10
312.4274130726
 20
-59.6664369763
 10
312.6105721941
 20
-60.1068570726
 10
312.6721304911
 20
-60.5583955447
 10
312.6105721941
 20
-61.0099340168
 10
312.4274130726
 20
-61.4503541131
 10
312.1271631121
 20
-61.8688112292
 10
311.717215463
 20
-62.2550015621
 10
311.2076643971
 20
-62.5994158242
 10
310.6110567526
 20
-62.8935733933
 10
309.9420829898
 20
-63.1302311337
 10
309.217215463
 20
-63.3035617465
 10
308.4543028163
 20
-63.4092972567
 10
307.6721304911
 20
-63.4448341051
 10
306.8899581659
 20
-63.4092972567
 10
306.1270455193
 20
-63.3035617465
 10
305.4021779924
 20
-63.1302311337
 10
304.7332042297
 20
-62.8935733933
 10
304.1365965852
 20
-62.5994158242
 10
303.6270455193
 20
-62.2550015621
 10
303.2170978702
 20
-61.8688112292
 10
302.9168479097
 20
-61.4503541131
 10
302.7336887882
 20
-61.0099340168
 10
302.6721304911
 20
-60.5583955447
 10
302.7336887882
 20
-60.1068570726
 10
302.9168479097
 20
-59.6664369763
 10
303.2170978702
 20
-59.2479798602
 10
303.6270455193
 20
-58.8617895272
 10
304.1365965852
 20
-58.5173752651
  0
LWPOLYLINE
  5
12B
330
1F
100
AcDbEntity
  8
0
  6
Continuous
 62
     1
370
    25
100
AcDbPolyline
 90
       58
 70
   128
 43
0.0
 10
293.2294202806
 20
33.6383453662
 10
293.8967611617
 20
33.2257802409
 10
294.9109955147
 20
32.4835634983
 10
295.8597637307
 20
31.6405167316
 10
296.7401332217
 20
30.69924575
 10
297.5493828159
 20
29.6626599682
 10
298.2850111692
 20
28.5339634134
 10
298.9447444966
 20
27.3166448221
 10
299.5265436001
 20
26.0144668561
 10
300.0286101721
 20
24.631454473
 10
300.4493923535
 20
23.1718824848
 10
300.7875895308
 20
21.6402623449
 10
301.0421563558
 20
20.0413282033
 10
301.2123059771
 20
18.3800222739
 10
301.2975124719
 20
16.661479558
 10
301.2975124719
 20
14.8910119727
 10
301.2123059771
 20
13.0740919319
 10
301.0421563558
 20
11.2163354313
 10
300.7875895308
 20
9.3234846898
 10
300.4493923535
 20
7.4013904005
 10
300.0286101721
 20
5.4559936467
 10
299.5265436001
 20
3.4933075383
 10
298.9447444966
 20
1.5193986256
 10
298.2850111692
 20
-0.4596318521
 10
297.5493828159
 20
-2.4376668249
 10
296.7401332217
 20
-4.4085923002
 10
295.8597637307
 20
-6.3663162603
 10
294.9109955147
 20
-8.3047874925
 10
293.8967611617
 20
-10.2180142934
 10
292.820195612
 20
-12.1000829886
 10
291.6846264681
 20
-13.9451762117
 10
290.4935637091
 20
-15.7475908851
 10
289.2506888418
 20
-17.5017558484
 10
287.9598435211
 20
-19.2022490783
 10
286.6250176759
 20
-20.8438144477
 10
285.2503371764
 20
-22.421377972
 10
283.8400510813
 20
-23.9300634928
 10
282.3985185041
 20
-25.3652077496
 10
280.9301951393
 20
-26.7223747938
 10
279.4396194904
 20
-27.9973696998
 10
277.9313988412
 20
-29.1862515314
 10
276.4101950153
 20
-30.285345523
 10
274.8807099666
 20
-31.2912544381
 10
273.3476712457
 20
-32.2008690699
 10
271.8158173875
 20
-33.0113778517
 10
270.2898832644
 20
-33.7202755472
 10
268.7745854514
 20
-34.3253709943
 10
267.2746076472
 20
-34.8247938776
 10
265.7945861971
 20
-35.2170005098
 10
264.3390957628
 20
-35.5007786024
 10
262.9126351816
 20
-35.6752510138
 10
261.5196135616
 20
-35.7398784597
 10
260.1643366526
 20
-35.6944611803
 10
258.8509935381
 20
-35.5391395578
 10
257.5836436862
 20
-35.2743936826
 10
256.3662044027
 20
-34.9010418689
 10
255.2024387227
 20
-34.4202381257
 10
254.2325897078
 20
-33.9134658995
  0
ARC
  5
12C
330
1F
100
AcDbEntity
  8
0
  6
Continuous
 62
     1
370
    25
100
AcDbCircle
 10
253.0391355575
 20
11.7938107094
 30
0.0
 40
48.39343876510188
100
AcDbArc
 50
304.9206089408
 51
355.4518755997
  0
ENDSEC
  0
SECTION
  2
OBJECTS
  0
DICTIONARY
  5
C
330
0
100
AcDbDictionary
281
     1
  3
ACAD_GROUP
350
D
  3
ACAD_LAYOUT
350
1A
  3
ACAD_MLINESTYLE
350
17
  3
ACAD_PLOTSETTINGS
350
19
  3
ACAD_PLOTSTYLENAME
350
E
  3
ACAD_SCALELIST
350
47
  3
DWGPROPS
350
12D
  0
DICTIONARY
  5
D
102
{ACAD_REACTORS
330
C
102
}
330
C
100
AcDbDictionary
281
     1
  0
DICTIONARY
  5
1A
102
{ACAD_REACTORS
330
C
102
}
330
C
100
AcDbDictionary
281
     1
  3
Layout1
350
1E
  3
Layout2
350
26
  3
Model
350
22
  0
DICTIONARY
  5
17
102
{ACAD_REACTORS
330
C
102
}
330
C
100
AcDbDictionary
281
     1
  3
Standard
350
18
  0
DICTIONARY
  5
19
102
{ACAD_REACTORS
330
C
102
}
330
C
100
AcDbDictionary
281
     1
  0
ACDBDICTIONARYWDFLT
  5
E
102
{ACAD_REACTORS
330
C
102
}
330
C
100
AcDbDictionary
281
     1
  3
Normal
350
F
100
AcDbDictionaryWithDefault
340
F
  0
DICTIONARY
  5
47
102
{ACAD_REACTORS
330
C
102
}
330
C
100
AcDbDictionary
281
     1
  3
A0
350
48
  3
A1
350
49
  3
A2
350
4A
  3
A3
350
4B
  3
A4
350
4C
  3
A5
350
4D
  3
A6
350
4E
  3
A7
350
4F
  3
A8
350
50
  3
A9
350
51
  3
B0
350
52
  3
B1
350
53
  3
B2
350
54
  3
B3
350
55
  3
B4
350
56
  3
B5
350
57
  3
B6
350
58
  3
B7
350
59
  3
B8
350
5A
  3
B9
350
5B
  3
C0
350
5C
  3
C1
350
5D
  3
C2
350
5E
  3
C3
350
5F
  3
C4
350
60
  3
C5
350
61
  3
C6
350
62
  3
C7
350
63
  3
C8
350
64
  3
C9
350
65
  3
D0
350
66
  3
D1
350
67
  3
D2
350
68
  0
XRECORD
  5
12D
102
{ACAD_REACTORS
330
C
102
}
330
C
100
AcDbXrecord
280
     1
  1
DWGPROPS COOKIE
  2

  3

  4

  6

  7

  8
b.kav
  9

300
=
301
=
302
=
303
=
304
=
305
=
306
=
307
=
308
=
309
=
 40
0.0
 41
2460346.545740185
 42
2460346.545740521
  1

 90
        0
  0
LAYOUT
  5
1E
102
{ACAD_REACTORS
330
1A
102
}
330
1A
100
AcDbPlotSettings
  1

  2
none_device
  4

  6

 40
0.0
 41
0.0
 42
0.0
 43
0.0
 44
0.0
 45
0.0
 46
0.0
 47
0.0
 48
0.0
 49
0.0
140
0.0
141
0.0
142
1.0
143
1.0
 70
   688
 72
     1
 73
     0
 74
     5
  7

 75
    16
147
1.0
148
0.0
149
0.0
100
AcDbLayout
  1
Layout1
 70
     1
 71
     1
 10
0.0
 20
0.0
 11
420.0
 21
297.0
 12
0.0
 22
0.0
 32
0.0
 14
1.0000000000E+20
 24
1.0000000000E+20
 34
1.0000000000E+20
 15
-1.0000000000E+20
 25
-1.0000000000E+20
 35
-1.0000000000E+20
146
0.0
 13
0.0
 23
0.0
 33
0.0
 16
1.0
 26
0.0
 36
0.0
 17
0.0
 27
1.0
 37
0.0
 76
     0
330
1B
  0
LAYOUT
  5
26
102
{ACAD_REACTORS
330
1A
102
}
330
1A
100
AcDbPlotSettings
  1

  2
none_device
  4

  6

 40
0.0
 41
0.0
 42
0.0
 43
0.0
 44
0.0
 45
0.0
 46
0.0
 47
0.0
 48
0.0
 49
0.0
140
0.0
141
0.0
142
1.0
143
1.0
 70
   688
 72
     1
 73
     0
 74
     5
  7

 75
    16
147
1.0
148
0.0
149
0.0
100
AcDbLayout
  1
Layout2
 70
     1
 71
     2
 10
0.0
 20
0.0
 11
0.0
 21
0.0
 12
0.0
 22
0.0
 32
0.0
 14
0.0
 24
0.0
 34
0.0
 15
0.0
 25
0.0
 35
0.0
146
0.0
 13
0.0
 23
0.0
 33
0.0
 16
1.0
 26
0.0
 36
0.0
 17
0.0
 27
1.0
 37
0.0
 76
     0
330
23
  0
LAYOUT
  5
22
102
{ACAD_REACTORS
330
1A
102
}
330
1A
100
AcDbPlotSettings
  1

  2
none_device
  4
Letter_(8.50_x_11.00_Inches)
  6

 40
6.35
 41
6.35
 42
6.35000508
 43
6.35000508
 44
215.9
 45
279.4
 46
0.0
 47
0.0
 48
0.0
 49
0.0
140
0.0
141
0.0
142
1.0
143
1.0
 70
  1712
 72
     1
 73
     0
 74
     0
  7

 75
     0
147
1.0
148
0.0
149
0.0
100
AcDbLayout
  1
Model
 70
     1
 71
     0
 10
0.0
 20
0.0
 11
279.4
 21
215.9
 12
0.0
 22
0.0
 32
0.0
 14
0.0
 24
0.0
 34
0.0
 15
279.4
 25
215.9
 35
0.0
146
0.0
 13
0.0
 23
0.0
 33
0.0
 16
1.0
 26
0.0
 36
0.0
 17
0.0
 27
1.0
 37
0.0
 76
     0
330
1F
331
29
  0
MLINESTYLE
  5
18
102
{ACAD_REACTORS
330
17
102
}
330
17
100
AcDbMlineStyle
  2
Standard
 70
     0
  3

 62
   256
 51
90.0
 52
90.0
 71
     2
 49
0.5
 62
   256
  6
BYLAYER
 49
-0.5
 62
   256
  6
BYLAYER
  0
ACDBPLACEHOLDER
  5
F
102
{ACAD_REACTORS
330
E
102
}
330
E
  0
SCALE
  5
48
102
{ACAD_REACTORS
330
47
102
}
330
47
100
AcDbScale
 70
     0
300
1:1
140
1.0
141
1.0
290
     1
  0
SCALE
  5
49
102
{ACAD_REACTORS
330
47
102
}
330
47
100
AcDbScale
 70
     0
300
1:2
140
1.0
141
2.0
290
     0
  0
SCALE
  5
4A
102
{ACAD_REACTORS
330
47
102
}
330
47
100
AcDbScale
 70
     0
300
1:4
140
1.0
141
4.0
290
     0
  0
SCALE
  5
4B
102
{ACAD_REACTORS
330
47
102
}
330
47
100
AcDbScale
 70
     0
300
1:5
140
1.0
141
5.0
290
     0
  0
SCALE
  5
4C
102
{ACAD_REACTORS
330
47
102
}
330
47
100
AcDbScale
 70
     0
300
1:8
140
1.0
141
8.0
290
     0
  0
SCALE
  5
4D
102
{ACAD_REACTORS
330
47
102
}
330
47
100
AcDbScale
 70
     0
300
1:10
140
1.0
141
10.0
290
     0
  0
SCALE
  5
4E
102
{ACAD_REACTORS
330
47
102
}
330
47
100
AcDbScale
 70
     0
300
1:16
140
1.0
141
16.0
290
     0
  0
SCALE
  5
4F
102
{ACAD_REACTORS
330
47
102
}
330
47
100
AcDbScale
 70
     0
300
1:20
140
1.0
141
20.0
290
     0
  0
SCALE
  5
50
102
{ACAD_REACTORS
330
47
102
}
330
47
100
AcDbScale
 70
     0
300
1:30
140
1.0
141
30.0
290
     0
  0
SCALE
  5
51
102
{ACAD_REACTORS
330
47
102
}
330
47
100
AcDbScale
 70
     0
300
1:40
140
1.0
141
40.0
290
     0
  0
SCALE
  5
52
102
{ACAD_REACTORS
330
47
102
}
330
47
100
AcDbScale
 70
     0
300
1:50
140
1.0
141
50.0
290
     0
  0
SCALE
  5
53
102
{ACAD_REACTORS
330
47
102
}
330
47
100
AcDbScale
 70
     0
300
1:100
140
1.0
141
100.0
290
     0
  0
SCALE
  5
54
102
{ACAD_REACTORS
330
47
102
}
330
47
100
AcDbScale
 70
     0
300
2:1
140
2.0
141
1.0
290
     0
  0
SCALE
  5
55
102
{ACAD_REACTORS
330
47
102
}
330
47
100
AcDbScale
 70
     0
300
4:1
140
4.0
141
1.0
290
     0
  0
SCALE
  5
56
102
{ACAD_REACTORS
330
47
102
}
330
47
100
AcDbScale
 70
     0
300
8:1
140
8.0
141
1.0
290
     0
  0
SCALE
  5
57
102
{ACAD_REACTORS
330
47
102
}
330
47
100
AcDbScale
 70
     0
300
10:1
140
10.0
141
1.0
290
     0
  0
SCALE
  5
58
102
{ACAD_REACTORS
330
47
102
}
330
47
100
AcDbScale
 70
     0
300
100:1
140
100.0
141
1.0
290
     0
  0
SCALE
  5
59
102
{ACAD_REACTORS
330
47
102
}
330
47
100
AcDbScale
 70
     0
300
1/128" = 1'-0"
140
0.0078125
141
12.0
290
     0
  0
SCALE
  5
5A
102
{ACAD_REACTORS
330
47
102
}
330
47
100
AcDbScale
 70
     0
300
1/64" = 1'-0"
140
0.015625
141
12.0
290
     0
  0
SCALE
  5
5B
102
{ACAD_REACTORS
330
47
102
}
330
47
100
AcDbScale
 70
     0
300
1/32" = 1'-0"
140
0.03125
141
12.0
290
     0
  0
SCALE
  5
5C
102
{ACAD_REACTORS
330
47
102
}
330
47
100
AcDbScale
 70
     0
300
1/16" = 1'-0"
140
0.0625
141
12.0
290
     0
  0
SCALE
  5
5D
102
{ACAD_REACTORS
330
47
102
}
330
47
100
AcDbScale
 70
     0
300
3/32" = 1'-0"
140
0.09375
141
12.0
290
     0
  0
SCALE
  5
5E
102
{ACAD_REACTORS
330
47
102
}
330
47
100
AcDbScale
 70
     0
300
1/8" = 1'-0"
140
0.125
141
12.0
290
     0
  0
SCALE
  5
5F
102
{ACAD_REACTORS
330
47
102
}
330
47
100
AcDbScale
 70
     0
300
3/16" = 1'-0"
140
0.1875
141
12.0
290
     0
  0
SCALE
  5
60
102
{ACAD_REACTORS
330
47
102
}
330
47
100
AcDbScale
 70
     0
300
1/4" = 1'-0"
140
0.25
141
12.0
290
     0
  0
SCALE
  5
61
102
{ACAD_REACTORS
330
47
102
}
330
47
100
AcDbScale
 70
     0
300
3/8" = 1'-0"
140
0.375
141
12.0
290
     0
  0
SCALE
  5
62
102
{ACAD_REACTORS
330
47
102
}
330
47
100
AcDbScale
 70
     0
300
1/2" = 1'-0"
140
0.5
141
12.0
290
     0
  0
SCALE
  5
63
102
{ACAD_REACTORS
330
47
102
}
330
47
100
AcDbScale
 70
     0
300
3/4" = 1'-0"
140
0.75
141
12.0
290
     0
  0
SCALE
  5
64
102
{ACAD_REACTORS
330
47
102
}
330
47
100
AcDbScale
 70
     0
300
1" = 1'-0"
140
1.0
141
12.0
290
     0
  0
SCALE
  5
65
102
{ACAD_REACTORS
330
47
102
}
330
47
100
AcDbScale
 70
     0
300
1-1/2" = 1'-0"
140
1.5
141
12.0
290
     0
  0
SCALE
  5
66
102
{ACAD_REACTORS
330
47
102
}
330
47
100
AcDbScale
 70
     0
300
3" = 1'-0"
140
3.0
141
12.0
290
     0
  0
SCALE
  5
67
102
{ACAD_REACTORS
330
47
102
}
330
47
100
AcDbScale
 70
     0
300
6" = 1'-0"
140
6.0
141
12.0
290
     0
  0
SCALE
  5
68
102
{ACAD_REACTORS
330
47
102
}
330
47
100
AcDbScale
 70
     0
300
1'-0" = 1'-0"
140
12.0
141
12.0
290
     0
  0
ENDSEC
  0
EOF
